Enrico Macias

Enrico Macias - Adieu Mon Pays guitar tab

Enrico Macias - Adieu Mon Pays

Submitted By: Antoine Abi Fadel

EMail: Zalem5@hotmail.com

Intro

Dm

E --7--12------7--10--8-7^8^7^8^7------7--8^10^8^10^8---7--7----|

B ---------------------------------10----------------------8----|

G ---------------------------------------------------------9----|

D ---------------------------------------------------------9----|

A ---------------------------------------------------------7----|

E ---------------------------------------------------------7----|

Strum chord with fingers slowly

E --15--14--12^14---10^12---8^10--7^8^7-----7--8^10^8--7-----------7^8^7-----|

B ---------------------------------------10--------------10--8--10-----------|

G ---------------------------------------------------------------------------|

D ---------------------------------------------------------------------------|

A ---------------------------------------------------------------------------|

E ---------------------------------------------------------------------------|

Strum chord with fingers slowly

E -------------------------------------------------------------------------7---|

B -10---8-7---7--8^10^8--7----------7^8^7----------------------------------8---|

G ----------9--------------9--7--9---------9--7--7^9^7---------------------9---|

D ------------------------------------------------------11--10^11^10---9---9---|

A -------------------------------------------------------------------------7---|

E -------------------------------------------------------------------------7---|

Strum chord with fingers slowly

E ----------7--7----7-7----7-7-------7-7-7----7-7-7----7-7-7------|

B ------------7------7------7---------8-7------8-7------8-7-------|

G ---------8------8-------8--------9--------9--------9------------|

D ----9-----------------------------------------------------------|

A ----------------------------------------------------------------|

E ----------------------------------------------------------------|

E ----7---7-7--7-7-7-7-7-7-7-7---8-7^8^7^8^7------------8-7^8^7^8^7----|

B -----10--8--7-8-7---7-----------------------10--8--10----------------|

G --9---------------9---9-7-9------------------------------------------|

D ---------------------------------------------------------------------|

A ---------------------------------------------------------------------|

E ---------------------------------------------------------------------|

E -----------------------------------------------7---|

B ---10--8-7--8^10^8---7----7^8^7----------------8---|

G ------------------------9-------9--7-----------9---|

D --------------------------------------10--9----9---|

A -----------------------------------------------7---|

E -----------------------------------------------7---|

Strum chord with fingers slowly

Em

J'ai quitt mon pays ...

D

J'ai quitt ma maison

C

ma vie ma triste vie

B

se traine sans raison

E --7^8^7-----7--8^10^8--7-----------7^8^7-----|

B ---------10--------------10--8--10-----------|

G ---------------------------------------------|

D ---------------------------------------------|

A ---------------------------------------------|

E ---------------------------------------------|

E -------------------------------------------------------------------------7---|

B -10---8-7---7--8^10^8--7----------7^8^7----------------------------------8---|

G ----------9--------------9--7--9---------9--7--7^9^7---------------------9---|

D ------------------------------------------------------11--10^11^10---9---9---|

A -------------------------------------------------------------------------7---|

E -------------------------------------------------------------------------7---|

Em

J'ai quitt mon soleil

D

J'ai quitt ma mer bleue

C

leur souvenir se reveille

B

bien aprs mon adieu

Em D

Soleil, soleil de mon pays perdu

C

Les villes blanches que j'aimai

B

Les filles que j'ai jadis connues

Em

J'ai quitt une amie

D

je vois encore ses yeux

C

ses yeux mouills de pluie

B

de la pluie de l'adieu

Em

Je revois son sourire

D

si prs de mon visage

C

il faisait splandire

B

les soirs de mon villages

E --9--7--6^7^6----------------|

B --------------9--7--6--------|

G -----------------------8-----|

D -----------------------------|

A -----------------------------|

E -----------------------------|

Em

mais du bord du bateau

D

qui m'eloignait du quai

C

une chane dans l'eau

B

a claqu comme un fouet

Em

j'ai longtemps rebord

D

ses yeux bleus qui fouillaient

C

la mer desanoyde

B

dans le flanc du regret

Get this song at:  amazon.com sheetmusicplus.com

Share your thoughts

0 Comments found