Ender

Ender - Quandary guitar tab

Both Guitars are tuned down to C# G# C# F# Bb eb

Verse/Intro Guitar 1:

e------------------------------------------------------------------

B------------------------------------------------------------------

G------------------------------------------------------------------

D-----------7--7------------7--7------------7--7------------7--7---

A-------------------------------------------------------------------

E--444444--4--4-4-555555--5--5--5-000000--0--0--0-000000--0--0--0---

Fill #1: Fill #2:

e-------------------             e------------------

B-------------------             B-----------------

G------------------              G------------------

D--4--5--4--------               D--4--5--754----

A------------0-----              A--------------0--

E----0--0--0-0----               E----0--0---------

Verse Guitar 2:

e-----------------                

B----------------              

G-11--12--7---              

D--x---x--x---              

A--9--10--5---              

E----------------

Chorus Guitar 1 (in order but not the rhythm):

e--------------0--------2-----------------------------

B-----0--------0--------3-------0-----0-------------

G-----0--------0--------2-------0-----0------4--7--

D--2--2----5---5----0---0----2--2--5--5---0--x--x--

A--2--2----5---5----0---0----2--2--5--5---0--2--5--

E--2--2----5---5----0---0----2--2--5--5---0---------

Chorus Guitar 2:

e-----------------                

B----------------              

G--9--12--7---              

D--9--12--7---              

A--7--10--5---              

E----------------

Breakdown Guitar 1:

e---------------------------

B-----3---------------7--4-

G-----x------7-----7--x--x-

D--2--2--7-----0---0--5--5-

A--2--2--5-------0-x--5--5-

E--2--2--5--4------4--5--5-

Breakdown Guitar 2:

e-------------------

B------------------

G--9-12-11-12--

D--9-12--9-12--

A--7-10--9-10--

E--------------

Transition Guitar 1:

e-----------------------

B----------------------

G----------------------

D--7-7-7-7-7-7-7-7-

A--5-4-0-5-4-0-5-4-

E--5-4-0-5-4-0-5-4-

Transition Guitar 2:

e---------------------------------------------------------------------

B--------------------------------------------------------------------

G—12-12-11-11--------12-12-11-11---------12-12-11-11---

D--------------12-12--------------12-12-------------------

A--------------------------------------------------------------------

E--------------------------------------------------------------------

Next Part Guitar 1:

e-------------------

B------------------

G------------------

D--7-7-7-4-7-14-

A--4-5-0-x-x--x-

E--4-5-0-2-5-12-

Next Part Guitar 2:

e------------

B-----------

G-----------

D-11-12--7-

A--x--x--x-

E--9-10--5-

Slow Part Guitar 1 (I don’t know part 2 yet exactly):

e--------------------------------------------------------

B-------------------------------------------------------

G-------------------------------------------------------

D--4--4-5-4—--5—4-5-4--0—4-5-4—0—4-5-7-----------------

A--4----------5--------0-------0----------------------

E--4----------5--------0-------0----------------------

e--------------------------------------------------------

B---------------------------------15--

G-------------------------------------------------------

D--7--4-5-4—7—4-5-4--7—4-5-4—7—12----------------------

A--4--------5--------0-------0------------------------

E--4--------5--------0-------0-------------------------

Bouncy Part Guitar 1:

e----------------

B---------------

G---------------

D--7—-7—-7--

A--4--5--0----

E--4--5--0-----

Bouncy Part Guitar 2 (the fast part that comes after this uses the same chords):

e---------------

B--------------

G-11-12-7----

D-11-10-5---

A--9-10-5—

E-------------

Solo Guitar 1 (same rhythm as transition):

e---------------

B--------------

G-14-12-11--

D--x--x--x--

A-12-10--9--

E--------------

Solo Ends On:

e-------

B-15--

G-14--

D--x---

A-12---

E-------

Pre End Guitar 1:

e---------------

B--------------

G-------------

D--4--5--0--

A--4--5--0--

E--4--5--0---

Pre End Guitar 2:

e---------------

B--------------

G-11-12-7----

D-11-12-7---

A--9-10-5----

E--------------

The very end is the same as the Transition for both parts.

Get this song at:  amazon.com sheetmusicplus.com

Share your thoughts

0 Comments found