Elliott Smith

Elliott Smith - Waterloo Sunset guitar tab

Waterloo Sunset

Elliot Smith

Tabbed by: gnarlyowen

\\"As far as I can tell from the mp3 live version,

he\\'s tuned down about 1.5 steps from standard tuning.

He may just be playing 1 step down but the mp3/recording

is a little off. This isn\\'t perfect but it\\'s a slight

improvement over the current tab.\\"

Chords used:

G D D/F# D/C D/B Am E E/G# C C/G

e|--3---2---2---2---2---0---0---0---0---0--|

b|--3---3---3---3---3---1---0---0---1---1--|

g|--0---2---2---2---2---2---1---1---0---0--|

d|--0---0---0---0---0---2---2---2---2---2--|

a|--2---x---x---3---2---0---2---x---3---3--|

e|--3---x---2---x---x---x---0---4---x---3--|

Intro:

E|---0---3-0---------------------------------------|

B|-3---3------3--------3-------------0-----------1-|

G|---------------2-4-2---4--2----------2--0------0-|

D|-----------------------------0-2-0---------2---2-|

A|-------------------------------------3---------3-|

E|---------3-------------2-------------------------|

G

Dirty old river

D/F#

Must we keep rolling

C

Flowing in to the light

G

People so busy

D/F#

Make me feel dizzy

C

Taxi lights shine so bright

Am E/G#

But i don\\'t need no friends,

G

As long as I gaze on

D/F#

Waterloo sunset

C

I am in paradise

G D/F# E

Am

Every day I look at the world

D

From my window

G D/F# E

Am

Chilly chilly this evening time

D D/C

Waterloo sunsets fine

D/B D

oh ooh

E|---0---3-0------------------------------------2--3--|

B|-3---3------3--------3-------------0----------3--3--|

G|---------------2-4-2---4--2----------2--0-----2--0--|

D|-----------------------------0-2-0---------2--0--0--|

A|-------------------------------------3--------x--2--|

E|---------3-------------2----------------------x--3--|

Get this song at:  amazon.com sheetmusicplus.com

Share your thoughts

0 Comments found