Elliott Smith

Elliott Smith - Tommorow Tommorow guitar tab

Tomorrow Tomorrow

Tune down a half step

Intro:

|-5-------5------3h5------3h5-------|-3-------3-------3-------3---|

|---5---5---5--------5--------5-----|---3---3---3---3---3---3--3--|

|-----5-------5---------5---------5-|-----4-------4-------4------4|

|-----------------------------------|-----------------------------|

|-----------------------------------|-----------------------------|

|-----------------------------------|-----------------------------|

|-1-------1-------1-------1-------|-2-------2-------2-------2-----|

|---3---3---3---3---3---3---3---3-|---3---3---3---3---3---3---3---|

|-----3-------3-------3-------3---|-----2-------2-------2-------2-|

|---------------------------------|-------------------------------|

|---------------------------------|-------------------------------|

|---------------------------------|-------------------------------|

Play 2x's

1.

|-----5------5--------------3---3h5-|-----3------3----------------|

|----------------3h5---3h5----------|------------------3h5--3h5-6-|

|-2------2--------------------------|-0------0------0-------------|

|-----------------------------------|-----------------------------|

|-----------------------------------|-----------------------------|

|-----------------------------------|-----------------------------|

Everybody knows Which way you go

_______1__________

|-----1------1----------------|---2-3-2---2-------|

|------------------3--3h5---3-|---------3---1--0--|

|-----------------------------|-2-----------------| repeat

|-3------3------3-------------|-0-----------------|

|-----------------------------|-------------------|

|-----------------------------|-------------------|

Straight to over

No one wants to see you inside of me

Straight to over

_________2__________

|----2-3-2---2-------|

|----------3----3-1--|

|-2------------------|

|-0------------------|

|--------------------|

|--------------------|

2.

|---5---5h6---6---5-|---3---3h4---4---5-|---1---1h3---3---5-|

|-------------------|-------------------|-------------------|

|-5---5-----5---5---|-4---4-----4---4---|-3---3-----3---3---|

|-------------------|-------------------|-------------------|

|-------------------|-------------------|-------------------|

|-------------------|-------------------|-------------------|

I heard the hammer at the wall say you're def & dumb &

_______1_________

|---2-3-2---2------|

|---------3---3--1-|

|------------------|

|-0----------------| Repeat

|------------------|

|------------------|

done

Give yourself another talk this time make it sound like

someone

________2_______

|---2-3-2---2------|

|---------3---3--3-|

|------------------|

|-0----------------|

|------------------|

|------------------|

3.

D D

The noise is coming out and if it's not out now

Bb F G D

Then tomorrow tomorrow

|-2-----3--2----|-2-----3--2--2-----------|

|----3-------3--|----3--------------------|

|---------------|-------------------------|

|---------------|-------------------------| Bb F G D

|---------------|-----------------------0-|

|---------------|--------------------3----|

D D

They took your life apart and called your failures art

Bb F G D Bb A

They were wrong though they won't know 'till tomorrow

4.

|-2-----3--2-------5-5-5-|-2-----3--2-------------------|

|----3---------3---------|----3--------3-1--------------|

|------------------------|-----------------2-0----------|

|-4--0--5--4---0---7-7-7-|-4--0--5--4----------3-2--0---|

|------------------------|----------------------------3-|

|------------------------|------------------------------|

Bb F G D

|-2-----3--2-----5-5-5-|-2-----3--2-------8--10----|

|----3--------3--------|----3--------3----8--10----|

|----------------------|---------------------------|

|-4--0--5--4--0--7-7-7-|-4--0--5--4--0-------------|

|----------------------|---------------------------|

Bb F G D

Bb A

|-2--3--2---5--5---3/1----|

|-----------------------3-|

|-------------------------|

|-4--5--4---7--7---5/3----|

|-------------------------|

|-------------------------|

Over riff 2

I got static in my head the reflected sound of

everything

I tried to go to where it led but it didn't lead to

anything

The noise is coming out and if it's not out

now

I know it's just about to drown tomorrow

out

play riff 2

end on D

Format

Intro

1.

Everybody knows which way you go

Straight to over

No one wants to see you inside of me

Straight to over

2.

I heard the hammer at the wall

Say you're def and dumb and done

Give yourself another talk

This time make it sound like someone

3.

The noise is coming out, and if it's not out now

Then tomorrow tomorrow

They took your life apart and called your failures art

They were wrong though they won't know 'til tomorrow

4.

2.

I got static in my head

The reflected sound of everything

I tried to go to where it led

But it didn't lead to anything

The noise is coming out

And if it's not out now

I know it's just about

To drown tomorrow out

I know this is a little tough to read, so if there are any

questions, drop me a line.

The ________1________ and _________2_________ are the first and second

endings for that particular riff, for those who don't study music.

-Jon

Get this song at:  amazon.com sheetmusicplus.com

Share your thoughts

0 Comments found