Elliott Smith

Elliott Smith - Thirteen guitar tab

this song is originally recorded by Big Star

this is pretty accurate. i'm just gonna give you the parts though you can put it together

tuned a full step down

intro(in between verses)

|--------|

|--------|

|---0-h2-|

|----3---|

|-3------|

|--------| x2

verses

|---------------------------------------1--0--1---3---1-|

|---------------------------------------1--1--3-3-3-3-3-|

|---0-h2--0-h2--0-h2--0-h2--0-h2--0-2--2--2--2----------|

|----3-----3-----3-----3-----3--------3--2--0----0---0--|

|-3------3-----3-----3-----3-----3-0--------------------|

|-------------------------------------------------------|

Amin Dmin Amin Dmin Dsus7

Maybe friday i can get tickets for the dance.

|---------1---3---1-|

|---------3-3-3-3-3-|

|--0-0-0-2----------|

|---3-2-0----0---0--|

|-3-----------------|

|-------------------|thats how you play all the verses

theres a solo but i dont feel like posting it. its pretty easy though you can probably figure it out

Won't you let me walk you home from school?

Won't you let me meet you at the pool?

Maybe Friday I can

Get tickets from the dance

And I'll take you

Ooh ooh ooh ooh

Won't you tell your dad get off my back?

Tell him what we said 'bout "paint it black"

Rock and roll is here to stay

Come inside now it's ok

And I'll shake you

Ooh ooh ooh

Won't you tell me what you're thinking of?

Would you be an outlaw for my love?

If it's so then let me know

If it's no then I can go

And I won't make you

Ooh ooh ooh

Added by tabs-database.com and our distinguished partners

Get this song at:  amazon.com sheetmusicplus.com

Share your thoughts

0 Comments found