Elliott Smith

Elliott Smith - The White Lady Loves You More guitar tab

The White Lady Loves You More

tabbed by Bunch

Tune Down full step

The easiest way to learn this song is to get the guitar parts down, and

then

it will seem almost obvious where the lyrics should fall into place.

I'll label

each part by number and then lay them over the lyrics so that you get a

vague

idea where they go.

Part 1

---------------------------------------------------------------------------

-----9----9----9-----9----9----9----9---9----9----9---9----9---------

---------------------------------------------------------------------------

---------------------------------------------------------------------------

-------7-----7----------7----7---------7---7---------7----7------------

--0----------------0---------------0-------------0-----------------------

Part 2

---------------------------------------------------------------------------

-----9----9----9-----9----9----9----9---9----9----9---9----9---------

---------------------------------------------------------------------------

---------------------------------------------------------------------------

-------6-----6----------6----6---------6---6---------6----6------------

--0----------------0---------------0-------------0-----------------------

Part 3

---------------------------------------------------------------------------

-----9----9----9-----9----9----9---10--10--10----9---9----9---------

---------------------------------------------------------------------------

---------------------------------------------------------------------------

-------7-----7----------7----7---------7---7---------7----7------------

--0----------------0---------------0---------------0--------------------

Part 4

---------------------------------------------------------------------------

------5----5----5-----5----5----5-----5---5---5----5----5-------------

---------------------------------------------------------------------------

---------------------------------------------------------------------------

---------7----7----------7----7----------7---7---------7-----5---------

---5----------------5----------------5--------------5---------------------

Part 5

----0-----0-----0-----0----0----0-----0----0----0------------0----0---

---------------------------------------------------------------------------

---------------------------------------------------------------------------

-------0-----2-----------0----2-----------0----2-----2/4---4----2------

---------------------------------------------------------------------------

-3------------------3----------------3------------------------------------

Part 6

---------------------------------------------------------------------------

------0------0-----0----0------0----0-------2-----2-----2------------------

---------------------------------------------------------------------------

----------2-----2-----2----------------------------------------------------

-----------------------------2-------------------4------4------------------

--0--------------------------------1------2--------------------------------

Part 7

---------------------------------------------------------------------------

-----2------2-----2--------5-----5-----5-----5----8---5------------------

---------------------------------------------------------------------------

---------------------------------------------------------------------------

---------4-----4---------------7-----7----------7----7---------------------

-2----------------------5-------------------5-----------------------------

Part 8

--------------0--3--0-----------------------------------------------------

-----0----0-------------3-------0----0----0------0----0------0----------

--------0------------------------------------------------------------------

---------------------------------------------------------------------------

--2---------------------------------7----7-----------7-----7-------------

------------------------------0-----------------0--------------------------

For the part that starts with "I'm looking at a hand of broken plans..."

continue

this picking pattern for every chord over the lyrics, which all are

regular bar chords in the E form. (except E which is open) If the chord

is written twice do the pattern twice.

Once you get the pattern down this part is pretty easy, I guarantee this

is not the exact way to pay it but it sounds ok to me. I hope that makes

sense, but I doubt it.

G#min C#min

---------------------------------------------------------------------------

------------4-----------------------9-------------------------------------

-----4-----------4--------9------------------9---------------------------

--------6-----6---------------11------11--------------etc.---------------

-------------------------------------------------------------------------

-4--------------------9-------------------------------------------------

Part 1 Part 2

keep your things in a place meant to hide

Part3

but i know they're there somewhere

Part 4

and i know that's where you'll go tonight

Part 5 Part 6

i'll be thrown over just like before

Part 7 Part 8

the white lady loves you more

Part1 Part2

need a metal man just to pick up your feet

Part3 Part4

it's a long time since you cared enough for me to even be discrete

Part5 Part6 Part7

i know what this metal is for

Part8

the white lady loves you more

G#min C#min A E

i'm looking at a hand full of broken plans

F#min F#min A A

and i'm tired of playing it down

G#min C#min A E

you just want her to do anything for you

G G F#min F#min

there ain't nothing that you won't allow

Part1 Part2

you wake up in the middle of the night

Part3 Part4

from a dream you won't remember flashing on like a cop's light

Par5 Part6 Part7

you say she's waiting and i know what for

Part8

the white lady loves you more

Repeat last 3 Parts, add a run down a open C and end on Emin

the white lady

good luck

Get this song at:  amazon.com sheetmusicplus.com

Share your thoughts

0 Comments found