Elliott Smith

Elliott Smith - Sweet Adeline guitar tab

SONG NAME - Sweet Adeline

Tabbed by: ToneDeaf2005

Basically, listen to the song to get the parts and timing right.

h = hammer-on

Tuning: Standard

INTRO Play 2x thru

G Bb Eb C D

e|-----------------------------------------------------------0-0----2-------|

B|-----0---0---0---0----3---3---3---3-----4---4---4----------1-1----3-------|

G|-----0---0---0---0----3---3---3---3-----3---3---3----------0-0----2--2----|

D|---5---4---2---0----3---2---0---------1---0----------------2-2--0---------|

A|--------------------------------3-------------3---1h3---3-----------------|

E|--------------------------------------------------------------------------|

VERSE (repeated 4x per verse, I think)

Bb/F Bb6/F Eb5 Eb D7 G G7

e|--------------------------------------------3---3----1--------------------|

B|--------------------------------------------0---0----0--------------------|

G|--3--3--0--0----3--3---0--0---5--3--7--7--- 0---0----0--------------------|

D|--3--3--3--3----1--1---1--1---0--0--0--0----0---0----3--------------------|

A|--------------------------------------------2---2----2--------------------|

E|--------------------------------------------3---3----3--------------------|

CHORUS

Eb Bb F Ab Db (3x)

Eb Bb F Ab B D (1x)

CODA

G5 Eb/G C/G G5 Eb/G C/G G5

2X0034 2x134x 3x2014

1 @ @

2 @

3 @ @@ @ @ @ @

4 @

Get this song at:  amazon.com sheetmusicplus.com

Share your thoughts

0 Comments found