Elliott Smith

Elliott Smith - Somebody That I Used To Know guitar tab

somebody i used to know

Standard E tuning with a capo on the 1st fret

This song is tricky to play,fingerpicked

all the way throughout.Here are the

main chords to the song, the little

solos are pretty easy to figure out.

Listen to the intro for hammer-ons

and such. If anyone wants to add the

words be my guest!

0 0 0 0 0 0 1 E

1 1 1 0 0 0 0 B

0 0 0 0 0 0 0 G

2 2 2 2 2 2 0 D

3 3 3 2 2 2 2 A

3 3 0 0 0 1 3 E

1 4 0 0 1 1 1 E

1 6 0 0 0 1 1 B

2 5 1 2 0 2 1 G

3 4 2 0 0 3 3 D

3 4 2 3 2 3 3 A

1 4 0 0 3 1 1 E

Basically just F,C Em,E , Fm,G# stuff,

just listen to the song for the timing.

Any corrections or questions please

email Jason at ponch21@webtv.net

SOMEBODY THAT I USED TO KNOW

As recorded by Elliott Smith

(From the 2000 Album FIGURE 8)

Words and Music by Elliott Smith

Arranged by Elliott Smith

Transcribed by JB

Gtr I (E A D G B E) - 'Guitar L'

Gtr II (E A D G B E) - 'Guitar R'

Gtr III (E A D G B E) - 'Solo Guitar'

Intro

Q=107

C/G Fmaj7/C Em

4/4

Gtrs I, II

E E S S E E E S S E E E S S E E E S S E

|-0---------0---------|-0---------0---------|

|-------1---------1---|-------1---------0---|

|---------------------|---------------------|

|---2-----2---2-----2-|---3-----3---2-----2-|

|---------------------|-3---3---------------|

|-3---3-----3---3-----|-----------0---0-----|

N.C. G7

2/4 4/4

E S S S S E E S S S S E E S S E E

|-0-----------|---0h1-------1---------|

|---------0---|---------0-------------|

|-----0-------|-----------------0-----|

|---2-------0-|---0-------0---0-----0-|

|-------------|-----------------------|

|-0-----1-----|-3-----3-----3-----3---|

F/C G#m6 N.C.(E) G7

2/4 4/4

E E S S E E S S S S E E E E E E E S S E E S S E E

|---1----------------1---|---------|-------0h1-1---------|

|-------1----------------|---0---0-|---0-----------------|

|----------------4-------|-1---2---|-0-------------0-----|

|---3-----3----3-------3-|---------|---0-----0---0-----0-|

|-3---3------------------|-2---3---|---------------------|

|-----------/4-----4-----|---------|-3---3-----3-----3---|

F Fm Fm6

E E S S E E E S S E E E +S S S S E S S S S S S

|---1---------(1)---1---|-----1-(1)-1---1---1-----1----------||

|---1---1---1--1--1-1-1-|-----1-(1)-1-1-1---1-1-1-1----0-----||

|---2---2---1--1--1-1-1-|-----1-(1)-1-1-1---1-1-1-1----0-----||

|---------3-3-----3---3-|-(3)---------3-------3-3---0-(0)----||

|-3---3-----3-----------|--3--------------3-----3------------||

|-----------------------|------------------------------------||

Verse 1, 2, 3

C/G C6 Em

E E +S S S S E E +S S S S E E S S S S E E +S S S S

||----0-(0)-0-0-0---0-(0)-0-0-0-|---0-(0)-0---0---0-(0)-0---0-|

||o---1-(1)-1-1-1---1-(1)-1-1-1-|---1-(1)-1-1-1---0-(0)-0-0-0-|

||----0-(0)-0-0-0---0-(0)-0-0-0-|---2-(2)-2-2-2---0-(0)-0-0-0-|

||----2-------2-----2-(2)---2---|---2-(2)---2-------------2---|

||o-----------------------------|-3---------3-----------------|

||--3-------------3-------------|---------------0-------------|

Em/F G7 G7/F#

2/4 4/4

S S S S S S S S E E +S S S S E S S S S S S

|-----------------------|---1-(1)-1---1---1-1-----------|

|---(0)-(0)-0---0-(0)-0-|---0-(0)-0-0-0---0-0---0-0-0---|

|---(0)--0--0---0--0--0-|---0-(0)-0-0-0---0-0---0-0-0---|

|---(2)--2--2---2--2--2-|-----------0-----0-----0-0-----|

|--------2--------------|-------------------------------|

|-0-----------1---------|-3-------------3-----2---------|

F G#m6

E E +S S S S E S S +S S S S

|---1-(1)-1---1-----------(6)-----|

|---1-(1)-1---1---6-6-(6)--6--6---|

|---2-(2)-2---2---4-4-(4)--4--4---|

|---3-------0-----3-3-(3)--3--3---|

|-3-----------------------------0-|

|---------------4---------------0-|

Em Cmaj7 G6 G7

2/4 4/4

E S S E S S E E +S S S S E E +S S S S

|---0-----0---|-----0-(0)-0---0---1-(1)-1---1-|

|---0-0---0-0-|-----0-(0)-0-0-0---0-(0)-0-0-0-|

|---0-0---0-0-|-----0-(0)-0-0-0---0-(0)-0-0-0-|

|---x-x---x-x-|-----0-------0-----0-------0---|

|-2-----3-----|-(2)---------------------------|

|-------------|--3--------------3-------------|

1.,2.

F Fm

E E +S S S S E E +S S S S E E +S S S S E E +S S S S 3x

|-----------1-------------1---|-----------1-------1--------------||

|---1-(1)-1-1-1---1-(1)-1-1-1-|---1-(1)-1-1-1-----1-(1)-1-----0-o||

|---2-(2)-2-2-2---1-(1)-1-1-1-|---1-(1)-1-1-1-(1)-1-(1)-1--0--0--||

|---3-(3)-3-3-3---3-(3)-3-3-3-|---3-(3)-3-3-3--3--3-(3)-3--0--0--||

|-3-------------3-------------|-3--------------3----------(0)---o||

|-----------------------------|----------------------------------||

3.

F Fm

E E +S S S S E E +S S S S

|-----------1-----1-----1------||

|---1-(1)-1-1-1---1-(1)-1-1----||

|---2-(2)-2-2-2---1-(1)-1-1----||

|---3-(3)-3-3-3---3-(3)-3-3-0--||

|-3-------------3-----------0--||

|------------------------------||

Solo

$

C/G C6 Em

Gtr III

E. S E S S +S E S E E H. E S S

|------0-------0-----------0-----------|------------------------------|

|---------1------1-(1)-0---------------|------------------------------|

|-----------------------------2----0---|--------------------/4----2-0-|

|--------------------------------------|-2----------------------------|

|--------------------------------------|------------------------------|

|--------------------------------------|------------------------------|

|

| Gtrs I, II

| E E +S S S S E E +S S S S E E S S S S E E +S S S S

|----0---(0)-0-0-0-------0---(0)-0-0-0-|----0-(0)-0---0---0-(0)-0---0-|

|----1---(1)-1-1-1-------1---(1)-1-1-1-|----1-(1)-1-1-1---0-(0)-0-0-0-|

|----0---(0)-0-0-0-------0---(0)-0-0-0-|----2-(2)-2-2-2---0-(0)-0-0-0-|

|----2---------2---------2---(2)---2---|----2-(2)---2-------------2---|

|--------------------------------------|-3----------3-----------------|

|-3-----------------3------------------|----------------0-------------|

Em/F G7 G7/F#

2/4 4/4

+S E S E E E. T T Q. S S S S S S

|------0------------------|------------------------------------|

|-------------4-3---------|------------------------------------|

|-(0)----------------5----|-2h==4p2p=0-------------------------|

|-------------------------|---------------------0-0-0h2p0------|

|-------------------------|-------------------------------3----|

|-------------------------|------------------------------------|

|

| S S S S S S S S E E +S S S S E S S S S S S

|-------------------------|---1-----(1)-1---1---1-1------------|

|-----(0)-(0)-0---0-(0)-0-|---0-----(0)-0-0-0---0-0---0-0-0----|

|-----(0)--0--0---0--0--0-|---0-----(0)-0-0-0---0-0---0-0-0----|

|-----(2)--2--2---2--2--2-|---------------0-----0-----0-0------|

|----------2--------------|------------------------------------|

|--0------------1---------|-3-----------------3-----2----------|

F G#m6 Em Cmaj7

2/4

+E E. E S E S S +S E S E. S S E S

|-----------------------------------|----------------|

|-----------------------------------|----------------|

|-----------------------------------|----------------|

|-----------------------------------|----------------|

|-(3)-3------3---3-/5-3-3-(3)-3---3-|-7----7-7-7---5-|

|-----------------------------------|----------------|

|

| E E +S S S S E S S +S S S S E S S E S S

|-----1--(1)-1---1------------------|----0-------0---|

|-----1--(1)-1---1----6-6-(6)-6-6---|----0-0-----0-0-|

|-----2--(2)-2---2----4-4-(4)-4-4---|----0-0-----0-0-|

|-----3--------0------3-3-(3)-3-3---|----x-x-----x-x-|

|--3------------------------------0-|-2------3-------|

|-------------------4-------------0-|----------------|

To Coda

G6 G7

4/4

E. S S S S S +E. S S S S S

|--------------------------------------|

|--------------------------------------|

|--------------------------------------|

|--------------------------------------|

|--7----7--7h=8-7-5-(5)---5--5h=7-5-3--|

|--------------------------------------|

|

| E E +S S S S E E +S S S S

|-----0---(0)-0---0-----1---(1)-1---1--|

|-----0---(0)-0-0-0-----0---(0)-0-0-0--|

|-----0---(0)-0-0-0-----0---(0)-0-0-0--|

|-----0---------0-------0---------0----|

|-(2)----------------------------------|

|--3-----------------3-----------------|

F Fm

+E E +S S +S S E S S E S S +W

|-----------------------------------|-----------------------------------||

|-----------------------------------|-----------------------------------||

|-----------------------------------|-----------------------------------||

|-----------------------------------|-----------------------------------||

|-(3)-3-(3)-3-(3)-3-3-3-3-/5----3-3-|-(3)-------------------------------||

|-----------------------------------|-----------------------------------||

|

| E E +S S S S E E +S S S S E E +S S S S E E +S S S S

|--------------1----------------1---|-------------1-------1-------------||

|-----1-(1)-1--1--1---1---(1)-1-1-1-|-----1-(1)-1-1-1-----1-(1)-1-----0-||

|-----2-(2)-2--2--2---1---(1)-1-1-1-|-----1-(1)-1-1-1-(1)-1-(1)-1--0--0-||

|-----3-(3)-3--3--3---3---(3)-3-3-3-|-----3-(3)-3-3-3--3--3-(3)-3--0--0-||

|--3----------------3---------------|--3---------------3----------(0)---||

|-----------------------------------|-----------------------------------||

Verse 4

C/G C6 Em

Gtrs I, II

E E +S S S S E E +S S S S E E S S S S E E +S S S S

|---0-(0)-0-0-0---0-(0)-0-0-0-|---0-(0)-0---0---0-(0)-0---0-|

|---1-(1)-1-1-1---1-(1)-1-1-1-|---1-(1)-1-1-1---0-(0)-0-0-0-|

|---0-(0)-0-0-0---0-(0)-0-0-0-|---2-(2)-2-2-2---0-(0)-0-0-0-|

|---2-------2-----2-(2)---2---|---2-(2)---2-------------2---|

|-----------------------------|-3---------3-----------------|

|-3-------------3-------------|---------------0-------------|

Em/F G7 G7/F#

2/4 4/4

S S S S S S S S E E +S S S S E S S S S S S

|-----------------------|---1-(1)-1---1---1-1------------|

|---(0)-(0)-0---0-(0)-0-|---0-(0)-0-0-0---0-0---0-0-0----|

|---(0)--0--0---0--0--0-|---0-(0)-0-0-0---0-0---0-0-0----|

|---(2)--2--2---2--2--2-|-----------0-----0-----0-0------|

|--------2--------------|--------------------------------|

|-0-----------1---------|-3-------------3-----2----------|

F G#m6 Em Cmaj7

2/4

E E +S S S S E S S +S S S S E S S E S S

|---1-(1)-1---1-----------------|---0-----0---|

|---1-(1)-1---1---6-6-(6)-6-6---|---0-0---0-0-|

|---2-(2)-2---2---4-4-(4)-4-4---|---0-0---0-0-|

|---3-------0-----3-3-(3)-3-3---|---2-2---2-2-|

|-3---------------------------0-|-2-----3-----|

|---------------4-------------0-|-------------|

D.S. al Coda

G6 G7 F Fm

4/4

E E +S S S S E E +S S S S E E +S S S S E E +S S S S

|-----0-(0)-0---0---1-(1)-1---1-|-----------1-----1-----1------||

|-----0-(0)-0-0-0---0-(0)-0-0-0-|---1-(1)-1-1-1---1-(1)-1-1----||

|-----0-(0)-0-0-0---0-(0)-0-0-0-|---2-(2)-2-2-2---1-(1)-1-1----||

|-----0-------0-----0-------0---|---3-(3)-3-3-3---3-(3)-3-3-0--||

|-(2)---------------------------|-3-------------3-----------0--||

|--3--------------3-------------|------------------------------||

Ending

&

F Fm

Gtr III

E E +S S +S S E S S E E

|-----------------------------------|

|-----------------------------------|

|-----------------------------------|

|-----------------------------------|

|-(3)-3-(3)-3-(3)-3-3-3-3-/5----3---|

|-----------------------------------|

|

| Gtrs I, II

| E E +S S S S E E +S S S S

|--------------1----------------1---|

|-----1-(1)-1--1--1---1---(1)-1-1-1-|

|-----2-(2)-2--2--2---1---(1)-1-1-1-|

|-----3-(3)-3--3--3---3---(3)-3-3-3-|

|--3----------------3---------------|

|-----------------------------------|

H.=H Q=70

G#m6/D G#m6/B F Fm E C/G

H H Q. E E E E E W

|--------------------------------|------------------------|-------*|

|--------------------------------|------------------------|-------*|

|--------------------------------|------------------------|-------*|

|--------------------------------|-----------------3----0-|-------*|

|-/5---------------2-------------|-3---------5---6----2---|--3----*|

|--------------------------------|------------------------|-------*|

|

| E E +S S S S E E +S S S S E E S S E Q Q W

|----1-(1)-1--1--1---1-(1)-1-1-1-|----1---1---------------|-^0----*|

|----0-(0)-0--0--0---0-(0)-0-0-0-|----1-1-1-(0)-^1---^0---|-^1----*|

|----1-(1)-1--1--1---1-(1)-1-1-1-|----2-2-2--0--^1---^1---|-^0----*|

|--0---------(0)-------------0---|----3-3-3--0--^3---^2---|-^2----*|

|------------------2-------------|-3------------^3---^2---|-^3----*|

|--------------------------------|-------------------^0---|-^3----*|

Get this song at:  amazon.com sheetmusicplus.com

Share your thoughts

0 Comments found