Elliott Smith

Elliott Smith - Satellite guitar tab

ELLIOTT SMITH

SATELLITE

^ - Arpeggio stroke down

h - hammer on

bq - bend 1/4 up

x - muted (by finger that frets the string below)

/ - slide up

D5 Dmaj9(b13)

E-|------------|---------|------0---0-|------0-----|

A-|------5---5-|---------|------7---9-|------7---5-|

G-|----7-----7-|-repeat--|----6-----6-|----6-------|

D-|----0---0---|-5 times-|----8---8---|----8---8---|

A-|----0-------|---------|----0-------|----0-------|

D-|0-----------|---------|0-----------|0-----------|

^ ^ ^

D5 Dmaj9(b13)

E-|------------|---------|------------|----------0-|

A-|------5---5-|---------|------7---9-|------7---0-|

G-|----7-----7-|-repeat--|----6-----6-|----6-----9-|

D-|----0---0---|--once---|----8---8---|----8---8-0h|(10)

A-|----0-------|---------|----0-------|----0-------|

D-|0-----------|---------|0-----------|0-----------|

^ ^ ^

Am/D Gmadd2/Bb Dadd4/A

E-|-------0----0-|--------|-------------|------------|

A-|----0-------0-|--------|------10---9-|------9---7-|

G-|----9-------9-|-repeat-|----0------0-|----0-----0-|

D-|----10---10---|-twice--|----0----0---|----0---0---|

A-|----0---------|--------|----0--------|----0-------|

D-|0-------------|--------|8------------|7-----------|

^ ^ ^

G6/9 G

E-|------0-----|------------|------------|

A-|------7---5-|------5---5-|------5---5-|

G-|----0-----0-|----4-----4-|----4-----4-|

D-|----0---0---|----0---0---|----0---0---|

A-|----0-------|----0-------|----0-------|

D-|5-----------|5-----------|5-----------|

^ ^ ^

D5 Dmaj9(b13)

E-|------------|------------|------------|----------0-|

A-|------5---5-|------5-----|------7---9-|------7---0-|

G-|----7-----7-|----7-------|----6-----6-|----6-----9-|

D-|----0---0---|----0-------|----8---8---|----8---8-0-|

A-|----0-------|----0-------|----0-------|----0-------|

D-|0-----------|0-------3bq-|0-----------|0-----------|

^ ^ ^ ^

Am/D Gmadd2/Bb Dadd4/A

E-|-------0----0-|--------|-------------|------------|

A-|----0-------0-|--------|------10---9-|------9---7-|

G-|----9-------9-|-repeat-|----0------0-|----0-----0-|

D-|----10---10---|-twice--|----0----0---|----0---0---|

A-|----0---------|--------|----0--------|----0-------|

D-|0-------------|--------|8------------|9-----------|

^ ^ ^

G6/9 G

E-|------0-----|------------|----------1-|

A-|------7---5-|------5---5-|------5---3-|

G-|----0-----0-|----4-----4-|----4-------|

D-|----0---0---|----0---0---|----0---0---|

A-|----0-------|----0-------|----0-------|

D-|5-----------|5-----------|5-----------|

^ ^ ^

F6/9 C D5 Gadd2

E-|------1---0-|------0-----|------------|-----------|

A-|----3-----3-|----3-----5-|------5---5-|--0h5-5--5-|

G-|----0-------|----0-------|----2-----2-|--0h4----4-|

D-|----0---0---|----2---2---|----0-------|--0----0---|

A-|----x-------|3-----------|----0-------|--0--------|

D-|3-----------|------------|0-------3---|5----------|

^ ^ ^ ^

F6/9 C

E-|------1---0-|------0-----|

A-|----3-----3-|----3-----5-|

G-|----0-------|----0-----7-|

D-|----0---0---|----2---2---|

A-|----x-------|3-----------|

D-|3-----------|------------|

^ ^

D5 Dmaj9(b13)

E-|------------|------------|------------|----------0-|

A-|------5---5-|------5-----|------7---9-|------7---0-|

G-|----7-----7-|----7-------|----6-----6-|----6-----9-|

D-|----0---0---|----0-------|----8---8---|----8---8-0-|

A-|----0-------|----0-------|----0-------|----0-------|

D-|0-----------|0-------3bq-|0-----------|0-----------|

^ ^ ^ ^

Am/D Gmadd2/Bb Dadd4/A

E-|-------0----0-|--------|-------------|------------|

A-|----0-------0-|--------|------10---9-|------9---7-|

G-|----9-------9-|-repeat-|----0------0-|----0-----0-|

D-|----10---10---|-twice--|----0----0---|----0---0---|

A-|----0---------|--------|----0--------|----0-------|

D-|0-------------|--------|8------------|7-----------|

^ ^ ^

G6/9 G

E-|------0-----|------------|----------1-|

A-|------7---5-|------5---5-|------5---3-|

G-|----0-----0-|----4-----4-|----4-------|

D-|----0---0---|----0---0---|----0---0---|

A-|----0-------|----0-------|----0-------|

D-|5-----------|5-----------|5-----------|

^ ^ ^

D5 Dmaj9(b13)

E-|------------|------------|------------|----------0-|

A-|------5---5-|------5-----|------7---9-|------7---0-|

G-|----7-----7-|----7-------|----6-----6-|----6-----9-|

D-|----0---0---|----0-------|----8---8---|----8---8-0-|

A-|----0-------|----0-------|----0-------|----0-------|

D-|0-----------|0-------3bq-|0-----------|0-----------|

^ ^ ^ ^

Am/D Am/C Gmadd2/Bb Dadd4/A

E-|-------0----0-|-------0---0-|-------0----0-|-------------|------------|

A-|----0-------0-|----0------0-|----0-------0-|------10---9-|------9---7-|

G-|----9-------9-|----9------9-|----9-------9-|----0------0-|----0-----0-|

D-|----10---10---|----10-------|----10---10---|----0----0---|----0---0---|

A-|----0---------|----0------0-|----0---------|----0--------|----0-------|

D-|0-------------|0--------9---|10------------|8------------|7-----------|

^ ^ ^ ^ ^

G6/9 G

E-|------0-----|------------|----------1-|

A-|------7---5-|------5---5-|------5---3-|

G-|----0-----0-|----4-----4-|----4-------|

D-|----0---0---|----0---0---|----0---0---|

A-|----0-------|----0-------|----0-------|

D-|5-----------|5-----------|5-----------|

^ ^ ^

F6/9 C D5 Gadd2

E-|------1---0-|------0-----|------------|-----------|

A-|----3-----3-|----3-----5-|------5---5-|--0h5-5--5-|

G-|----0-------|----0-------|----2-----2-|--0h4----4-|

D-|----0---0---|----2---2---|----0-------|--0----0---|

A-|----x-------|3-----------|----0-------|--0--------|

D-|3-----------|------------|0-------3---|5----------|

^ ^ ^ ^

F6/9 C

E-|------1---0-|------0-----|

A-|----3-----3-|----3-----5-|

G-|----0-------|----0-----7-|

D-|----0---0---|----2---2---|

A-|----x-------|3-----------|

D-|3-----------|------------|

^ ^

D5 Gmadd2/Bb Dadd4/A

E-|------------|-----------|-------------|------------|

A-|------5---5-|-----5---5-|------10---9-|------9---7-|

G-|----7-----7-|---7-----7-|----0------0-|----0-----0-|

D-|----0---0---|---0---0---|----0----0---|----0---0---|

A-|----0-------|---0-------|----0--------|----0-------|

D-|0-----------|0----------|8------------|7-----------|

^ ^ ^ ^

G6/9 G

E-|------0-----|------------|----------1-|

A-|------7---5-|------5---5-|------5---3-|

G-|----0-----0-|----4-----4-|----4-------|

D-|----0---0---|----0---0---|----0---0---|

A-|----0-------|----0-------|----0-------|

D-|5-----------|5-----------|5-----------|

^ ^ ^

F6/9 C D5 Gadd2

E-|------1---0-|------0-----|------------|-----------|

A-|----3-----3-|----3-----5-|------5---5-|--0h5-5--5-|

G-|----0-------|----0-------|----2-----2-|--0h4----4-|

D-|----0---0---|----2---2---|----0-------|--0----0---|

A-|----x-------|3-----------|----0-------|--0--------|

D-|3-----------|------------|0-------3---|5----------|

^ ^ ^ ^

F6/9 C

E-|------1---0-|------0-----|

A-|----3-----3-|----3-----5-|

G-|----0-------|----0-----7-|

D-|----0---0---|----2---2---|

A-|----x-------|3-----------|

D-|3-----------|------------|

^ ^

D5 Gmadd2/Bb Dadd4/A

E-|------------|-----------|-------------|------------|

A-|------5---5-|-----5---5-|------10---9-|------9---7-|

G-|----7-----7-|---7-----7-|----0------0-|----0-----0-|

D-|----0---0---|---0---0---|----0----0---|----0---0---|

A-|----0-------|---0-------|----0--------|----0-------|

D-|0-----------|0----------|8------------|7-----------|

^ ^ ^ ^

G6/9 G

E-|------0-----|------------|------------|----------1-|

A-|------7---5-|------5---5-|------5---5-|------5---3-|

G-|----0-----0-|----4-----4-|----4-----4-|----4-------|

D-|----0---0---|----0---0---|----0---0---|----0---0---|

A-|----0-------|----0-------|----0-------|----0-------|

D-|5-----------|5-----------|5-----------|5-----------|

^ ^ ^ ^

F6/9 C D5 Gadd2

E-|------1---0-|------0-----|------------|-----------|

A-|----3-----3-|----3-----5-|------5---5-|--0h5-5--5-|

G-|----0-------|----0-------|----2-----2-|--0h4----4-|

D-|----0---0---|----2---2---|----0-------|--0----0---|

A-|----x-------|3-----------|----0-------|--0--------|

D-|3-----------|------------|0-------3---|5----------|

^ ^ ^ ^

F6/9 C D5 Gadd2

E-|------1---0-|------0-----|------------|-----------|

A-|----3-----3-|----3-----5-|------5---5-|------5--5-|

G-|----0-------|----0-------|----2-----2-|----4----4-|

D-|----0---0---|----2---2---|----0-------|----0--0---|

A-|----x-------|3-----------|----0-------|----0------|

D-|3-----------|------------|0-------3---|5----------|

^ ^ ^ ^

F6/9 C

E-|------1---0-|------0-----|

A-|----3-----3-|----3-----5-|

G-|----0-------|----0-----7-|

D-|----0---0---|----2---2---|

A-|----x-------|3-----------|

D-|3-----------|------------|

^ ^

D5

E-|------------|------------|------------|------------|

A-|--5---5---5-|--5---5---5-|--5---5---5-|--5---5---5-|

G-|--7---7---7-|--7---7---7-|--7---7---7-|--7---7---7-|

D-|--0---0---0-|--0---0---0-|--0---0---0-|--0---0---0-|

A-|----0-------|----0---5---|----0---5---|----0---3/5-|

D-|0-------3bq-|0-----------|0-----------|0-----------|

D5 Dmaj7/A G/C D5

E-|------------|------------|------------|------------|----...||

A-|--5---5---5-|--5---5---5-|--5---5-4---|4---4---2---|5---...||

G-|--7---7---7-|--7---7---7-|--7---7-7---|7---7---0---|2---...||

D-|--0---0---0-|--0---0---0-|--0---0-0---|0---0---0---|0---...||

A-|----0-------|----0-------|----0-----0-|--0---0-3h5-|0---...||

D-|0-------3bq-|0-------3bq-|0-----------|------------|0---...||

^

Get this song at:  amazon.com sheetmusicplus.com

Share your thoughts

0 Comments found