Elliott Smith

Elliott Smith - Rose Parade guitar tab

-------------------------------------------------------------------------------

Rose parade - Elliott Smith

-------------------------------------------------------------------------------

Tabbed by: Adam Warburton

Written by: Elliott Smith

Album: either/or

Tuning: E,A,D,G,B,e

'They asked me to come down and watch the parade......'

e|--2-3-2-------------3-3-2----|

B|--3-3-3-2-2-2-------3-3-3----|

G|--2-2-2-2-2-2-1-1-1-0-0-0----|

D|--0-0-0-2-2-2-2-2-2-0-0-0----|

A|--------0-0-0-2-2-2-2-2-2----|

E|--------------0-0-0-3-3-3----|

'To people passing by that all seem to be going the other way'

e|----------------------3-3-3-3---|

B|----------4-4-2-2-----3-3-3-3---|

G|--3-3-3-3-4-4-2-2-1-1-0-0-0-0---|

D|--4-4-4-4-4-4-2-2-2-2-0-0-0-0---|

A|--4-4-4-4-2-2-0-0-2-2-2-2-2-2---|

E|--2-2-2-2---------0-0-3-3-3-3---|

e

===============================================================================Added by tabs-database.com and our distinguished partners

Get this song at:  amazon.com sheetmusicplus.com

Share your thoughts

0 Comments found