Elliott Smith

Elliott Smith - Riot Coming guitar tab

riot coming tab

TUNE one step down

Intro:G

Strum G9- Or maybe

--------------------------- ----------

--------------------------- ----------

-0-------------------0-0-0- ----------

-0-------------------0-0-0- -5----5---

-x-------------------x-x-x- -5----5---

-3-------------------4-4-4- -3----4---

Verse:

Am D F

---0-0-0-0------- --2-2-2-2------- --1-1-1-1-1-1-1-

---1-1-1-1------- --1-1-1-1------- --1-1-1-1-1-1-1-

---2-2-2-2------- --2-2-2-2------- --2-2-2-2-2-2-2-

---2-2-2-2------- 0---------0----- --3-3-3-3-3-3-3-

-0---------0-2-3- ------------3-2- 3-3-3-3-3-3-3-3-

----------------- ---------------- --1-1-1-1-1-1-1-

C

-0-0-0-0-0-0-0-0-

-1-1-1-1-1-1-1-1-

-0-0-0-0-0-0-0-0-

-2-2-2-2-2-2-2-2-

-3-3-3-3-3-3-3-3-

-----------------

Am D F C

it's (to reveal) that fucked up cop

Am D F C

(hipped on) prescription pills

Am D F C

that brought my heart to a stop

C F

i wanna tell you

E F G

there's a riot coming

Am

like a drug in the water

E F G

a punch in the stomach

Am (play the verse

part again)

makes sons into daughters

Am D F C

i met a girl on the square

Am D F C

who taught me how to kill my cares

C F C

once thats done, man, there's nothing to do

C F E

time's running backwards for me and you

F G

there's a riot coming

Am

like a drug in the water

E F G

a punch in the stomach

Am

makes sons into daughters

E F G Am

my body's running but i don't see why it bothers

Verse part again: First time end up on Fm instead of

C.

Am D F C

sent down to jail with this friend of mine

Am D F C

who wouldn't close both eyes

Am D F C

but kept one shut all the time

C F C

to cover the thing he was scared of

F

while he watched with the other

E F G

there was a riot coming

Am

like a drug in the water

E F G

a punch in the stomach

Am

makes sons into daughters

E F

theres a riot coming

G Am

theres a riot coming

E F G Am

theres a riot coming

Get this song at:  amazon.com sheetmusicplus.com

Share your thoughts

0 Comments found