Elliott Smith

Elliott Smith - Punch And Judy guitar tab

Punch and Judy

Standard tuning

Chords used

F: 133211

Am: X02210

Dm: XX0231

G: 320033

Bb: X13331

Dm/C#: X40231 (probably not right, but I think he at least hits the C# bass not)

A: X02220

VERSE 1

F Am

A wallflower Punch talks to Judy

Dm G Bb

In a crowded corner where anybody can listen in

F Am

But they don't read page to page or speak easy now

Dm G Bb

They're gonna go and say the words in the wrong order again

LITTLE BASS RUN

D-----------1-2-3-3-2-0-----------

A-----0-1-3-------------3-0-0-----

E-1-1-------------------------3-1-

VERSE 2

F Am

They walk in a circle through all the sidewalk scenes

Dm G Bb

They used to be a part of one time now everybody just stares

and whispers

F Am

Driving around up and down division street

Dm G Bb

I used to like it here, it just bums me out to remember

CHORUS

Dm Dm/C# Bb A G Bb

Can't you ever treat anyone nice?

Dm Dm/C# Bb A G Bb

I think I'm gonna make the same mistake twice

VERSE 3

F Am

They draw the curtain, wait for a call

Dm G Bb

Pretty lucky if they get any kind of response at all

SOLO

F Am Dm G Bb

--------------------------------------------

-1-3-5-1---1-3-5-1--------------------------

---------2---------2-0---0------------------

-----------------------3---3-0-----------0--

-------------------------------3-2-2-3-2----

--------------------------------------------

Dm Dm/C# Bb A G Bb

Can't you ever treat anyone nice?

Dm Dm/C# Bb A G

I think I'm gonna make the same mistake twice

Bb A

I'm gonna make the same mistake

Ending:

F Am Dm G Bb F

Twice

Get this song at:  amazon.com sheetmusicplus.com

Share your thoughts

0 Comments found