Elliott Smith

Elliott Smith - Pitseleh guitar tab

This is the intro and rest of the tabs to my favorite artist Elliott smith, song: Pitseleh

( strum the 2&3 fast, if you cant do it 4 start with 2 strums and make your way up)

|---2-2-2-2---2-2-2-2---2-2-2-2---2-2-2-2---2-2-2-2---2-2-2-2---2-2-2-2|

|---3-3-3-3---3-3-3-3---3-3-3-3---3-3-3-3---3-3-3-3---3-3-3-3---3-3-3-3|

|----------------------------------------------------------------------|

|----------------------------------------------------------------------|

|----------------------------------------------------------------------|

|-0---------0---------2---------2---------0---------0---------2--------|

|---2-2-2-2---2-2-2-2---2-2-2-2---2-2-2-2---2-2-2-2---2-2-2-2---2-2-2-2|

|---3-3-3-3---3-3-3-3---3-3-3-3---3-3-3-3---3-3-3-3---3-3-3-3---3-3-3-3|

|----------------------------------------------------------------------|

|----------------------------------------------------------------------|

|----------------------------------------------------------------------|

|2----------0---------0---------2---------2---------0---------0--------|

|---2-2-2-2---2-2-2-2---2-2-2-2---2-2-2-2---2-2-2-2---2-2-2-2---2-2-2-2|

|---3-3-3-3---3-3-3-3---3-3-3-3---3-3-3-3---3-3-3-3---3-3-3-3---3-3-3-3|

|----------------------------------------------------------------------|

|----------------------------------------------------------------------|

|----------------------------------------------------------------------|

|-2---------2---------0---------0---------2---------2---------0--------|

i'll tell you why I

|---2-2-2-2---2-2-2-2---2-2-2-2---2-2-2-2---2-2-2-2---2-2-2-2---2-2-2-2|

|---3-3-3-3---3-3-3-3---3-3-3-3---3-3-3-3---3-3-3-3---3-3-3-3---3-3-3-3|

|----------------------------------------------------------------------|

|----------------------------------------------------------------------|

|---------------------------------------------------0---------0--------|

|0----------2---------2---------0---------0----------------------------|

dont wanna' know were you are ive got a joke

|---2-2-2-2---2-2-2-2---2-2-2-2---2-2-2-2---2-2-2-2---2-2-2-2---2-2-2-2|

|---3-3-3-3---3-3-3-3---3-3-3-3---3-3-3-3---3-3-3-3---3-3-3-3---3-3-3-3|

|----------------------------------------------------------------------|

|----------------------------------------------------------------------|

|----------------------------------------------------------------------|

|-2---------2---------3---------3---------0---------0---------2--------|

Ive been dying to tell you a silent kid is

|---2-2-2-2---2-2-2-2---2-2-2-2---2-2-2-2---2-2-2-2---2-2-2-2---2-2-2-2|

|---3-3-3-3---3-3-3-3---3-3-3-3---3-3-3-3---3-3-3-3---3-3-3-3---3-3-3-3|

|----------------------------------------------------------------------|

|----------------------------------------------------------------------|

|----------------------------------------------------------------------|

|2---------0---------0---------2---------2---------0---------0---------|

Looking down the barrel

|---2-2-2-2---2-2-2-2---2-2-2-2---2-2-2-2--|

|---3-3-3-3---3-3-3-3---3-3-3-3---3-3-3-3--|

|------------------------------------------|

|------------------------------------------|

|------------------------------------------|

|-0---------0---------2---------2----------|

to make the noise

|---2-2-2-2---2-2-2-2---2-2-2-2---2-2-2-2---2-2-2-2---2-2-2-2-|

|---3-3-3-3---3-3-3-3---3-3-3-3---3-3-3-3---3-3-3-3---3-3-3-3-|

|-------------------------------------------------------------|

|-------------------------------------------------------------|

|-0---------0-------------------------------------------------|

|---------------------2---------2---------3---------3---------|

that ive kept soo quiet

|---2-2-2-2---2-2-2-2---2-2-2-2---2-2-2-2-|

|---3-3-3-3---3-3-3-3---3-3-3-3---3-3-3-3-|

|-----------------------------------------|

|-----------------------------------------|

|---------------------0---------0---------|

|-0---------0-----------------------------|

kept it from you pitseleh

then this is the bridge to the next part

|---2-2-2-2---2-2-2-2---2-2-2-2---2-3-3-3----2-2-2-2---2-2-2-2---2-2-2-2|

|---3-3-3-3---3-3-3-3---3-3-3-3---2-2-2-2----3-3-3-3---3-3-3-3---3-3-3-3|

|-----------------------------------------------------------------------|

|-0---------------------------------------20---------0------------------|

|-----------2---------0---------0------------------------------2--------|

|-----------------------------------------------------------------------|

|---2-2-2-2---2-2-2-2----2-2-2-2---2-3-3-3---2-2-2-2---2-2-2-2----2-2-2-2|

|---3-3-3-3---3-3-3-3----3-3-3-3---2-2-2-2---3-3-3-3---3-3-3-3----3-3-3-3|

|------------------------------------------------------------------------|

|---------------------20---------------------------------------20--------|

|-0---------0--------------------2---------0---------0-------------------|

|------------------------------------------------------------------------|

|---2-2-2-2---2-2-2-2---2-2-2-2-|

|---3-3-3-3---3-3-3-3---3-3-3-3-|

|-------------------------------|

|-------------------------------|

|-2---------0---------0---------|

|-------------------------------|

|---2-2-2-2---2-2-2-2---2-2-2-2---2-2-2-2---2-2-2-2---2-2-2-2---2-2-2-2|

|---3-3-3-3---3-3-3-3---3-3-3-3---3-3-3-3---3-3-3-3---3-3-3-3---3-3-3-3|

|----------------------------------------------------------------------|

|----------------------------------------------------------------------|

|----------------------------------------------------------------------|

|-0---------0---------2---------2---------0---------0---------2--------|

i'm not whats missing from your

|---2-2-2-2---2-2-2-2---2-2-2-2---2-2-2-2---2-2-2-2---2-2-2-2---2-2-2-2|

|---3-3-3-3---3-3-3-3---3-3-3-3---3-3-3-3---3-3-3-3---3-3-3-3---3-3-3-3|

|----------------------------------------------------------------------|

|----------------------------------------------------------------------|

|-------------------------------0---------0----------------------------|

|-2---------0---------0-----------------------------2---------2--------|

life now i could never be the puzzle

|---2-2-2-2---2-2-2-2---2-2-2-2---2-2-2-2---2-2-2-2---2-2-2-2---2-2-2-2|

|---3-3-3-3---3-3-3-3---3-3-3-3---3-3-3-3---3-3-3-3---3-3-3-3---3-3-3-3|

|----------------------------------------------------------------------|

|----------------------------------------------------------------------|

|----------------------------------------------------------------------|

|----------------------------------------------------------------------|

|-3---------3---------0---------0---------2---------2---------0--------|

pieces they say that god makes problems

|---2-2-2-2---2-2-2-2---2-2-2-2---2-2-2-2---2-2-2-2---2-2-2-2---2-2-2-2|

|---3-3-3-3---3-3-3-3---3-3-3-3---3-3-3-3---3-3-3-3---3-3-3-3---3-3-3-3|

|----------------------------------------------------------------------|

|----------------------------------------------------------------------|

|----------------------------------------------------------------------|

|-0---------2---------2---------0---------0----------2--------2--------|

just to see what you can stand before you doo

|---2-2-2-2---2-2-2-2---2-2-2-2---2-2-2-2---2-2-2-2---2-2-2-2---2-2-2-2|

|---3-3-3-3---3-3-3-3---3-3-3-3---3-3-3-3---3-3-3-3---3-3-3-3---3-3-3-3|

|----------------------------------------------------------------------|

|----------------------------------------------------------------------|

|---------------------------------------------------0---------0--------|

|-0---------2---------2---------0---------0----------------------------|

as the devil pleases give up the faith that you love

|---2-2-2-2---2-2-2-2---2-2-2-2---2-3-3-3----2-2-2-2---2-2-2-2---2-2-2-2|

|---3-3-3-3---3-3-3-3---3-3-3-3---2-2-2-2----3-3-3-3---3-3-3-3---3-3-3-3|

|-----------------------------------------------------------------------|

|-0---------------------------------------20---------0------------------|

|-----------2---------0---------0------------------------------2--------|

|-----------------------------------------------------------------------|

|---2-2-2-2---2-2-2-2----2-2-2-2---2-3-3-3---2-2-2-2---2-2-2-2----2-2-2-2|

|---3-3-3-3---3-3-3-3----3-3-3-3---2-2-2-2---3-3-3-3---3-3-3-3----3-3-3-3|

|------------------------------------------------------------------------|

|---------------------20---------------------------------------20--------|

|-0---------0--------------------2---------0---------0-------------------|

|------------------------------------------------------------------------|

|---2-2-2-2---2-2-2-2---2-2-2-2-|

|---3-3-3-3---3-3-3-3---3-3-3-3-|

|-------------------------------|

|-------------------------------|

|-2---------0---------0---------|

|-------------------------------|

on the part were he says No one deserves this play…

|---2-2-2-2---2-2-2-2---2-2-2-2---2-2-2-2--|

|---3-3-3-3---3-3-3-3---3-3-3-3---3-3-3-3--|

|------------------------------------------|

|------------------------------------------|

|------------------------------------------|

|-2---------2---------3---------3----------|

play this during the piano part…

|-2-2-2-2-|

|-3-3-3-3-| stum extra hard and sumtimes more than four at the end of each 4 strum sequence

play everything as usual

|---2-2-2-2---2-2-2-2---2-2-2-2---2-2-2-2--|

|---3-3-3-3---3-3-3-3---3-3-3-3---3-3-3-3--|

|------------------------------------------|

|------------------------------------------|

|------------------------------------------|

|-0---------0---------2---------2----------|

|---2-2-2-2---2-2-2-2---2-2-2-2---2-2-2-2---2-2-2-2---2-2-2-2-|

|---3-3-3-3---3-3-3-3---3-3-3-3---3-3-3-3---3-3-3-3---3-3-3-3-|

|-------------------------------------------------------------|

|-------------------------------------------------------------|

|-0---------0-------------------------------------------------|

|---------------------2---------2---------3---------3---------|

|---2-2-2-2---2-2-2-2---2-2-2-2---2-2-2-2-|

|---3-3-3-3---3-3-3-3---3-3-3-3---3-3-3-3-|

|-----------------------------------------|

|-----------------------------------------|

|---------------------0---------0---------|

|-0---------0-----------------------------|

|---2-2-2-2---2-2-2-2---2-2-2-2---2-3------2-2-2-2|

|---3-3-3-3---3-3-3-3---3-3-3-3---2-2------3-3-3-3|

|-------------------------------------------------|

|-0------------------------------------20---------|

|-----------2---------0---------0-----------------|

|-------------------------------------------------|

after piano part play this again

|---2-2-2-2---2-2-2-2---2-2-2-2---2-3-3-3----2-2-2-2---2-2-2-2---2-2-2-2|

|---3-3-3-3---3-3-3-3---3-3-3-3---2-2-2-2----3-3-3-3---3-3-3-3---3-3-3-3|

|-----------------------------------------------------------------------|

|-0---------------------------------------20---------0------------------|

|-----------2---------0---------0------------------------------2--------|

|-----------------------------------------------------------------------|

|---2-2-2-2---2-2-2-2----2-2-2-2---2-3-3-3---2-2-2-2---2-2-2-2----2-2-2-2|

|---3-3-3-3---3-3-3-3----3-3-3-3---2-2-2-2---3-3-3-3---3-3-3-3----3-3-3-3|

|------------------------------------------------------------------------|

|---------------------20---------------------------------------20--------|

|-0---------0--------------------2---------0---------0-------------------|

|------------------------------------------------------------------------|

|---2-2-2-2---2-2-2-2---2-2-2-2-|

|---3-3-3-3---3-3-3-3---3-3-3-3-|

|-------------------------------|

|-------------------------------|

|-2---------0---------0---------|

|-------------------------------|

everything as usual with new lyrics

(the first time i saw you i knew it would never last

i'm not half what i wish i was

i'm so angry

i don't think it'll ever pass

and i was bad news for you just because

i never meant to hurt you)

|---2-2-2-2---2-2-2-2---2-2-2-2---2-2-2-2----------|

|---3-3-3-3---3-3-3-3---3-3-3-3---3-3-3-3----------|

|--------------------------------------------------|

|--------------------------------------------------|

|--------------------------------------------------|

|-0---------0---------2---------2------------------|

|---2-2-2-2---2-2-2-2---2-2-2-2---2-2-2-2---2-2-2-2---2-2-2-2-|

|---3-3-3-3---3-3-3-3---3-3-3-3---3-3-3-3---3-3-3-3---3-3-3-3-|

|-------------------------------------------------------------|

|-------------------------------------------------------------|

|-0---------0-------------------------------------------------|

|---------------------2---------2---------3---------3---------|

|---2-2-2-2---2-2-2-2---2-2-2-2---2-2-2-2-|

|---3-3-3-3---3-3-3-3---3-3-3-3---3-3-3-3-|

|-----------------------------------------|

|-----------------------------------------|

|---------------------0---------0---------|

|-0---------0-----------------------------|

|---2-2-2-2---2-2-2-2---2-2-2-2---2-3-3-3----2-2-2-2---2-2-2-2---2-2-2-2|

|---3-3-3-3---3-3-3-3---3-3-3-3---2-2-2-2----3-3-3-3---3-3-3-3---3-3-3-3|

|-----------------------------------------------------------------------|

|-0---------------------------------------20---------0------------------|

|-----------2---------0---------0------------------------------2--------|

|-----------------------------------------------------------------------|

|---2-2-2-2---2-2-2-2----2-2-2-2---2-3-3-3---2-2-2-2---2-2-2-2----2-2-2-2|

|---3-3-3-3---3-3-3-3----3-3-3-3---2-2-2-2---3-3-3-3---3-3-3-3----3-3-3-3|

|------------------------------------------------------------------------|

|---------------------20---------------------------------------20--------|

|-0---------0--------------------2---------0---------0-------------------|

|------------------------------------------------------------------------|

|---2-2-2-2---2-2-2-2---2-2-2-2-|

|---3-3-3-3---3-3-3-3---3-3-3-3-|

|-------------------------------|

|-------------------------------|

|-2---------0---------0---------|

|-------------------------------|

when its over strum D chord once

-mike

Added by tabs-database.com and our distinguished partners

Get this song at:  amazon.com sheetmusicplus.com

Share your thoughts

0 Comments found