Elliott Smith

Elliott Smith - Pictures of Me guitar tab

Pictures of Me

Tune down a full step

E: 022100 C*: 8(10)(10)988

F#7: 242322 G: 355433

C: 335553 F#: 244322

Am: 577555 D: XX0232

B: 799877 C**: 332010

Am*: X02210 Em: 022000

Vs1

E F#7

Start stop and start, stupid acting smart

C Am

Flirting with the flicks, you say it's just for kicks

B C*

You'll be the victim of your own dirty tricks

G F C

You got yourself to tease and displease

Vs2

Doors swinging wide, you walked in to hide

Looking at your feet, failure's complete

Saw you and me on the coin-op tv

Frozen in fear every time we appear

Chorus

D F#7 C**

I'm not surprised at all and really, why should I be

Am* Em

See nothing wrong, see nothing wrong

D F#7 C**

So sick and tired of all these pictures of me

Am* Em

Completely wrong, totally wrong

Vs3

Go walking by, here come another guy

Jailer who sells personal hells

Who'd like to see me down on my fucking knees

Everybody's dying just to get the disease

SOLO

CHORUS

D F#7 C**

I'm not surprised at all and really, why should I be

Am* Em

See nothing wrong, see nothing wrong

D F#7 C**

I'm so sick and tired of all these pictures of me

G F# C

Everybody's dying just to get the disease

Repeat last line 2x's

Intro: ----0-------0---|----0------0---|----0------0---|----0----0|

----0-------0---|----1------1---|----3------3---|----4----5|

----1-------1---|----1------1---|----2------2---|----3----4|

------2-------2-|------2------2-|------2------2-|------2---|

----------------|---------------|---------------|----------|

-0-------0------|-0------0------|-0------0------|-0------0-|

Part before chorus

|--8----7----5----3------| high e string

|----------------------3-|

Solo over chorus chords

1. |-12-12-12-12-| high e 2. |-12-12-12-12-|

|-12-12-12-12-| (repeat) |-14-14-14-14-| (repeat)

3. |-12-12-12-12-| 4. |-12-12-12-12-|

|-15-15-15-15-| (repeat) |-17-17-17-17-| (repeat)

5. |-0--2--3--3--3--2--0--2--2--0--0-| high e string

6. |---------------------------|

|-5/3--1--------------------|

|---------4--2-----0--------|

|---------------------4--2--|

|---------------------------|

|---------------------------|

Listen to the album for correct timings

Get this song at:  amazon.com sheetmusicplus.com

Share your thoughts

0 Comments found