Elliott Smith

Elliott Smith - Our Thing guitar tab

Elliott Smith - Our Thing

=-=-=-=-=-=-=-=-=-=-=-=-=

Tabbed by Tony G (yeah@hehe.com)

* Normal tuning

* You MUST listen to the song to get this :)

[Chords]

A 002220

A* 002120

A** 002020

B 223332

C 032010

D 000232

Dm 000231

D/A# 010230

D/B 020230

E 022100

F 133211

F/E 033211

G 355433

[Riff]

E -----0-3-

B -2-3-----

G ---------

D ---------

A ---------

E ---------

[Riff2]

E -----0-3-0-3-

B -2-3---------

G -------------

D -------------

A -------------

E -------------

[Riff3]

E -0-0-0-3-

B -2-3-2-2-

G -2-2-2-2-

D -2-2-2-2-

A -0-0-0-0-

E -0-0-0-0-

-=[Our Thing]=-=-=-=-=-=-=-=-=-=-=-=-=-=-=-=-=-=-=-=-=-=-=-=-=-=-=-=-=-

E -----0-3-5---------5-5---------5-5-7-5-5-5-5-----1-----5-----3-0-

B -2-3-----5---------8-5---------8-5-5-5-8-5-5-----1-----5-----3-0-

G ---------6---------6-6---------6-6-6-6-6-6-6-----2-----6-----4-1-

D ---------7---------7-7---------7-7-7-7-7-7-7-----3-----7-----5-2-

A ---------0---------0-0---------0-0-0-0-0-0-0-----0-----0-----5-2-

E -------------------------------------------------------------3-0-

E -----0-3-5---------5-5---------5-5-7-5-5-5-5----1---0-1-1--5-----3-

B -2-3-----5---------8-5---------8-5-5-5-8-5-5----1---1-3-1--5-----3-

G ---------6---------6-6---------6-6-6-6-6-6-6----2---2-2-0--6-----4-

D ---------7---------7-7---------7-7-7-7-7-7-7----3---3-3-3--7-----5-

A ---------0---------0-0---------0-0-0-0-0-0-0----0---0-0-0--0-----5-

E -----------------------------------------------------------------3-

F E G F Riff

F E G F E Riff

A B C A** F E A Riff3

A A* A** D Dm A E A Riff3

A A* A** D Dm A E A Riff2

F E G F Riff

F E G F E Riff

F E G F Riff

F E G F E Riff

A B C A** F/E F D/B D/A# F ------- A

Get this song at:  amazon.com sheetmusicplus.com

Share your thoughts

0 Comments found