Elliott Smith

Elliott Smith - No Name #4 guitar tab

No Name #4

by Elliott Smith

from Roman Candle

Chords used:

E: 022100

Emaj7: 021100

D: xx0232

A: x02220

B: x24442

(at various times the B has a bass note of F#, G#, and A)

F#: 244322

G: 355433

Intro and between verses:

e----0-0-0---0--

B----0-0-0---0--

G----1-1-1---1--

D----2-2-2---2--

A----2-2-2-2----

E--0------------

Chord progressions:

Play this twice:

Chord progression 1:

E Emaj7 D A

e---0-0-0---0---0-------2-2-2---2-2-2---0-0-0----

B---0-0-0---0---0-------3-3-3---3-3-3---2-2-2----

G---1-1-1---1---1-------2-2-2---2-2-2---2-2-2----

D---2-2-2---2-1---2-1-0---0-0-0---0-0---2-2-2----

A---2-2-2-2---------------------------0---0-0----

E-0---------------------------------------------

Then play this once:

Chord progression 2:

B B E D A E F# G F# E

e-2-2-------2-2-2-0-0-----2-2-0-0-0-0-0-0-2-2-2-2-3-3-2-2-0-

B-4-4-------4-4-4-0-0-----3-3-2-2-0-0-0-0-2-2-2-2-3-3-2-2-0-

G-4-4-------4-4-4-1-1-----2-2-2-2-1-1-1-1-3-3-3-3-4-4-3-3-1-

D-4-4-------4-4-4-2-2-2-1-0-0-2-2-2-2-2-2-4-4-4-4-5-5-4-4-2-

A-2-2---0-2---2-2-2-2---------0-0-2-2-2-2-4-4-4-4-5-5-4-4-2-

E-2-2-4-----------0-0-------------0-0-0-0-2-2-2-2-3-3-2-2-0-

Verse 1:

E Emaj7 D

For a change she got out

A E

Before he hurt her bad

Emaj7 D

Took her records and clothes

A B

And pictures of her boy

E

It really made her sad

D A E

Packed it up and didn't look back

F# G F# E

I'm okay let's just forget all about him

Verse 2:

E Emaj7 D

The car was cold and it smelled

A E

Like old cigarettes and pine

Emaj7 D

In her bag I saw things

A B

She drew when she was nine

E

Like this one here

D A E

Her alone nobody near

F# G F# E

What a shame let's just not talk about it

Verse 3:

Solo (Chord progression 1 through twice)

B E

No it doesn't look like you

D A E

But you did wear cowboy boots

F# G F# E

That's your fame there's no question about it

Verse 4:

E Emaj7 D

Once we got back inside

A E

With one ear to the ground

Emaj7 D

I was ready to hide

A B

'Cos I don't know who's around

E

And you look scared

D A E

It's our secret do not tell

F# G F# E

Okay? Let's just not talk about it

E F#

Don't tell okay?

G F# E

Let's just forget all about it

Scott

Get this song at:  amazon.com sheetmusicplus.com

Share your thoughts

0 Comments found