Elliott Smith

Elliott Smith - No Name #2 guitar tab

Elliott Smith - No Name #2 Tabbed by Joshua Ruzich

to sound the best this song should be played with 2 guitarists, but it still sounds pretty good with just one.

It's played in standard tuning with the lowest string being the E. If you play harmonica, you use a G. Gotta listen

to get it exactly.

Guitar #1 First Part

GMaj D7-5sus4 D6-5sus4 D7-5sus4 DMaj D6-5sus4

E---10------10-----8-----7-----7----7-------8------7-------5-----5-------5----7---8----7--------------------

B---12------12-----8-----8-----8----8-------8------8-------7-----7-------7--------------8--------------------

G----0-------0------0-----0-----0----0-------0------0-------7-----7-------7--------------7--------------------

D--------------------------0------0----0----------------------0------0------0--------------0--------------------

A------------------------------------------------------------------------------------------------------------------

E-------------------------------------------------------------------------------------------------------------------

Guitar #2 First Part (Strum these chords with someone playing the above part)

CMaj GMaj F#m#5 GMaj

E---------------------3--------------------------------------------------------------------------------------------

B------1-------------0------------3-----------3-------------------------------------------------------------------

G------0-------------0------------2-----------0-------------------------------------------------------------------

D------2-------------0------------0-----------0-------------------------------------------------------------------

A------3-------------2------------0-----------2-------------------------------------------------------------------

E---------------------3------------2-----------3-------------------------------------------------------------------

Guitar #1 Second Part

E-------------------------------------------------------------------------------------------------------------------------1-------------------

B------------5-----5-----5--------------------4------/-----5--------5--------3------2--------0------0----------------0--------2---------

G------------4-----4-----4--------------------4------------4--------4--------0------0--------2-----1----------------0--------2---------

D------------2-----2-----2--------------------X-----------X-------X-------0-------2--------2------2---------------0--------2---------

A------------2-----2-----2--------------------2------------2--------2-------2-------0--------0------0---------------2--------0---------

E----0--------------------------0----2---3----2------------2--------2-------3-----------------------------0-----2----3------------------

E--------------------------------------------------------------------------------------------------------------------------------------------

B------------5-----5-----5--------------------4------/-----5--------5--------3------2--------5------3------2------2------2------------

G------------4-----4-----4--------------------4------------4--------4--------0------0--------4------2------0------0------0------------

D------------2-----2-----2--------------------X-----------X-------X-------0-------2--------0------0------2------2------2-----------

A------------2-----2-----2--------------------2------------2--------2-------2-------0-----------------------0------0------0-----------

E----0--------------------------0----2---3----2------------2--------2-------3------------------------------------------------------------

Chorus (First Part)

Bridge (or something)

E------------1-------------0------------------------------------:------------------------------------------

B------------0-------------0-----------------2---------1-------:-------5------3------2------------------

G------------0------------0------------------2---------0-------:-------4------2------0------------------

D-----------0-------------2------------------2---------2-------:-------0------0------2------------------

A-----------2------0-----2------------------0---------3-------:----------------------0------------------

E-----3-----3-------------0------2----3------------------------:-----------------------------------------

Guitar #2 Second Part (this guitarists picks individual notes of the chords above (Guitar 1 Second Part)

Good Luck

Get this song at:  amazon.com sheetmusicplus.com

Share your thoughts

0 Comments found