Elliott Smith

Elliott Smith - Lets Get Lost guitar tab

Elliott Smith - Let's Get Lost

Album - From A Basement On The Hill - Track 2

Standard Tuning; Capo on 5th fret (chords and notes relative to capo)

Note: I didn't tab out every note; I'm just trying to give a guideline

on what chords/notes to play. You'll have to listen to play it

correctly. (Sorry.) Also, the timing is set to more or less match the

lyrics below the tabs.

Intro:

(Am) (D) (A) (B)

e----5----||----5----3----0-----------------------------2----|

B----5----||----3----3----3----3----1----0--------------4----|

G----5----||----2----2----2----2----2----2----0----2----4----|

D----7----||----0----0----0----0----0----0----0----2----4----|

A----0----||---------------------------------------0----2----|

E----0----||--------------------------------------------2----|

Verse 1:

(Em) (G)

e||----3--------------2-----------0----|

B||.---0--------------0-----------0----|

G||----0--------------0-----------0----|

D||.---2--------------0-----------0----|

A||----2--------------2-----------2----|

E||----0--------------3-----------3----|

Lyrics: Been outside, invited in

(C) (D)

e----0----0---0--------0------2---2--0-----2---------------|

B----1----1---1--2--1--1------3---3-----3--3---------------|

G----0----0---0--------0------2---2--------2---------------|

D----2----2---2--------2---0--0---0--------0----0----------|

A----3----3---3--------3---------------------------3--2--0-|

E----------------------------------------------------------|

But I couldn't abide, went missing again

(Am) (D)

e---------------0-----0-----------3----2-----------------|

B--------1--3---1-3-1-1-----------1----3-----------------|

G----2---2--2---2-2-2-2-----------2----2-----------------|

D----2---2--2---2-2-2-2-----------2--0-0------0----------|

A----0---0--0---0-0-0-0-----------0--------------3--2--0-|

E--------------------------------------------------------|

Burning every bridge that I cross

(Am) (D) (B)

e------------------0----------0-------3----2--------|

B--------1----3----1--3--1----1-------1----3-----4--|

G----2---2----2----2--2--2----2-------2----2-----4--|

D----2---2----2----2--2--2----2-------2--0-0-----4--|

A----0---0----0----0--0--0----0-------0----------2--|

E------------------------------------------------2--|

To find some beautiful place to get lost

Verse 2:

Had true love, made it die

I pushed her away, she said, please stay

Burning every bridge that I cross

To find some beautiful place to get lost

e----0-------------------------------0--|

B----4-------------------------------1--|

G----4-------------------------------0--|

D----4-------------------------------2--|

A----2-------------------------------3--|

E----2----------------------------------|

To find some beautiful place to get lost...

e--3----3----2----0--------0-----------0-----0----3--3----2-----------------|

B--0----0----3----1--3-----1----1--3---1-3-1-1----1--1----3-----------------|

G--0----0----2----0--0-----2----2--2---2-2-2-2----2--2----2-----------------|

D--2----0----0----2--0-----2----2--2---2-2-2-2----2--2--0-0------0----------|

A--2----2---------3--2--0--0----0--0---0-0-0-0----0--0--------------3--2--0-|

E--0----3-------------------------------------------------------------------|

e------------------0----------0-------3----2--------|

B--------1----3----1--3--1----1-------1----3-----4--|

G----2---2----2----2--2--2----2-------2----2-----4--|

D----2---2----2----2--2--2----2-------2--0-0-----4--|

A----0---0----0----0--0--0----0-------0----------2--|

E------------------------------------------------2--|

Verse 3:

I don't know where I'll go now

And I don't really care who follow me there

But I'll burn every bridge that I cross

And find some beautiful place to get lost

e----0-------------------------------0--|

B----4-------------------------------1--|

G----4-------------------------------0--|

D----4-------------------------------2--|

A----2-------------------------------3--|

E----2----------------------------------|

And find some beautiful place to get lost...

Outro:

e--3----3----2----0--------0-------0----|

B--0----0----3----1--3-----1-------1----|

G--0----0----2----0--0-----2-------0----|

D--2----0----0----2--0-----2-------2----|

A--2----2---------3--2--0--0----3--3----|

E--0----3-------------------------------|

e--7-7-7--5--3----3-3-2-2--0-------0----0----|

B--8-8-8--7--3----3-3-3-3--1--3----1----1----|

G--0-0-0--0--0----0-2-2-2--0--0----2----0----|

D--------------------------2--0----2----2----|

A--------------------------3--2--0-0----3----|

E--------------------------------------------|

e--3----3----2----0--------0-------0----|

B--0----0----3----1--3-----1-------1----|

G--0----0----2----0--0-----2-------0----|

D--2----0----0----2--0-----2-------2----|

A--2----2---------3--2--0--0----3--3----|

E--0----3-------------------------------|

e--7-7-7--5--3----3-3-2-2--0-------0----0----|

B--8-8-8--7--3----3-3-3-3--1--3----1----1----|

G--0-0-0--0--0----0-2-2-2--0--0----2----0----| x4

D--------------------------2--0----2----2----|

A--------------------------3--2--0-0----3----|

E--------------------------------------------|

e--7-7-7--5--3----3-3-2-2--0-----0----|

B--8-8-8--7--3----3-3-3-3--1--3--1----|

G--0-0-0--0--0----0-2-2-2--0--0--2----|

D--------------------------2--0--2----|

A--------------------------3--2--0----|

E-------------------------------------|

grptertius@yahoo.com

Get this song at:  amazon.com sheetmusicplus.com

Share your thoughts

0 Comments found