Elliott Smith

Elliott Smith - Get Lost guitar tab

get lost

by elliott smith

tabbed by ian

capo on 7

Am B7

Follow the song for the timing

e|-5---3----------------------------------|

B|-1-------5---3---1-3-1---0-1-0---0-1-0--|

G|-2---2---2---2---2-2-2---2-2-2---2------|

D|-2---2---2---2---2-2-2---2-2-2---1------|

A|-0---0---0---0---0-0-0---0-0-0---2------|

E|----------------------------------------|

Em

there are signs

Gmaj7

dividing in

C

that i couldn't abide

D /C /B

i wouldn't miss it again

Am D /C /B

burning every bridge that i cross

Am D /D#

to find some beautiful place to get lost

i had true love

but made it die

pushed out of the way

she said please stay

burning every bridge that i cross

to find some beautiful place to get lost

B C Em

to find some beautiful place to get lost

C /B Am

Solo-ey thingamajig

Em Am

e|-7--5--3----3--2--0----|

B|-8--7--5----5--3--1----|

G|-----------------------| C Am Repeat

D|-----------------------|

A|------------0--0--0--0-|

E|-0--0--0--0------------|

i don't know where i'll go now

and i don't really care who follows me there

but ill burn every bridge that I cross

to find some beautiful place to get lost

to find some beautiful place to get lost

Get this song at:  amazon.com sheetmusicplus.com

Share your thoughts

0 Comments found