Elliott Smith

Elliott Smith - Fond Farewell guitar tab

FOND FAREWELL

by Elliott Smith

Capo on 5

Chords

G xxx232

Gsus4 xxx233

Am 022000

Am7 022030

C 320033

Em x24432

Bm 244222

*CAPO ON 5*

INTRO/CHORUS:

Play this 3 times:

Am C G Em

e|-----0---0-2-----------------0---2------2---2-----------|

B|---3---3--------3--------3-3--------3-3-------3---------|

G|------------------------------------------------4-------|

D|---------------------------------0----------------4-4-4-|

A|-2--------------2--2--2---------------------2-----2-2-2-|

E|-0--------------3--3--3---------------------------------|

Am C

e|-----0---0-2---7-5-2-0--|

B|---3---3-------0-0-0-0--|

G|---------------0-0-0-0--|

D|---------------0-0-0-0--|

A|-2----------------------|

E|-0----------------------|

G

my thoughts now black and white

Am Em

they took apart a picture that wasn't right

Bm C

pitch burning (?) on a shining sheet

Am C

the only maker that you'd want to meet

Em Gsus4 - G

dying man in a living room

Am Em

whose shadow paces the floor

Bm C

i'll take you out any open door

Am C

this is not my life.

G Em

it's just a fond farewell to a friend

Am C

not what i'm like

G Em

it's just a fond farewell to a friend

Am C

couldnt get things right

G Em

fond farewell to a friend

he said really i just wanna dance

good and evil matched perfect it's a great romance

i can deal with some psychic pain

it's little slow down my higher brain

page full of disappearing ink

?? in the kitchen sink

disconnecting from the missing link

this is not my life

it's just a fond farewell to a friend

it's not what i'm like

it's just a fond farewell to a friend

i couldn't get things right

fond farewell to a friend

i see you're leaving me and taking up with the enemy

the cold comfort of the in between

a little less than a human being

a little less than a happy high

a little less than a suicide

the only things that you really tried

this is not my life

it's just a fond farewell to a friend

it's not what i'm like

it's just a fond farewell to a friend

who couldn't get things right

fond farewell to a friend

this is not my life

it's just a fond farewell to a friend

Get this song at:  amazon.com sheetmusicplus.com

Share your thoughts

0 Comments found