Elliott Smith

Elliott Smith - Flowers For Charlie guitar tab

I sorta just learned this song by listening to a bootleg copy of Elliott's show in Columbus, Ohio. It's seems to me to be pretty accurate, but it might not be perfect. I dont' really know all of the lyrics, but the one's that I sorta know are included. I don't know the second verse or other chorus words...sorry..

Song Title: Flowers for Charlie

From Album: ?

Transcribed By: Kyle Custer

Contact Email: spcuster@prodigy.net

Tuning: standard

Notes on how to play it: The entire song stays pretty much in the same rhythm throughout except the chorus.

Play the Intro and verse not in the single chords listed, but in the rhythm of the song... cool??

Sorry i don't know the names of the weird chords... I just wrote them all down in tab...

INTRO:

e |---10------9-------12-------10------9----------10-------9--------12------10------9------------10--------9--------12-|

b |-----7-------7--------7--------7-------7------------8-------8----------8-------8------ 8-------------9---------9----------9-|

g |-----7-------7--------7--------7-------7------------7-------7----------7-------7-------7-------------7---------7----------7-|

d |-----0-------0--------0--------0-------0------------0-------0----------0-------0-------0-------------0---------0----------0-|

a |------------------------------------------------------------------------------------------------------------------------------|

e |------------------------------------------------------------------------------------------------------------------------------|

e |---14----12-----------------------------------12-----14-----15-----15------12------14-----12---------|

b |----------14----14---14----11----14------------------------------------x--------x-------x-------x---------|

g |------------------11----------------------------------------------------------12------12------14-----14---------|

d |--------------------------------------------------------------------------------------------------------------|

a |--------------------------------------------------------------------------------------------------------------|

e |--------------------------------------------------------------------------------------------------------------|

VERSE:

e |----------------------------------------------------------------------------------------------------------------------------------------|

b |----------------------------------------------------------------------------------------------------------------------------------------|

g |-------------7----------------6----------------9----------7------6-----------7-----------6--------9--------------------7-------6------7-------6-------4-|

d |-------------7----------------7----------------7----------7------7-----------5-----------5--------5--------------------5-------5------6-------6-------6-|

a |-------------5----------------5----------------5----------5------5-----------5-----------5--------5--------------------5-------5------5-------5-------5-|

e |----------------------------------------------------------------------------------------------------------------------------------------|

(1st v.)Flo - - -wers for Char- -lie You kno - - - - w I'm not a good G.I. J o--e

(3rd v.)kiss me quick- - - - ly, i'm in a hu - - - - -- - - -rry and i've got worry

-

e |-----------------------------------------------------------------------------------------------------------------------------------------|

b |-----------------------------------------------------------------------------------------------------------------------------------------|

g |-----4----------------------------------------------6---------------------------4-----------6------------|

d |-----6----------------------------------------------8---------------------------5-----------7------------| (Repeat w/2nd v.(??))

a |-----5----------------------------------------------5---------------------------5-----------7------------| (After 2nd v. go to chorus)

e |----------------------------------------------------------------------------------- 3-----------5------------|

--'Cuz I always hang lo- - - -w And I wo--n't find you

enough to just sta - y around

------------------------------------G--A------------G---F#

(lead into chorus): It's a cop o - - - -- - - - - - ut......

CHORUS:

F#--------------------Bm---C#/A---D-------------Em----F#-----G

I don't to want to win, your game(??) a - - - -ny - -mo - - re

--------------Em---G------A----G

there's a world with - in

F#--------------G-------A

But I can't crawl o - -ut

(repeat VERSE w / 3rd verse lyrics)

(repeat INTRO after 3rd verse)

(repeat CHORUS w / other chorus lyrics after intro)

(end with the INTRO)

Hope You Like It...

kyle

Get this song at:  amazon.com sheetmusicplus.com

Share your thoughts

0 Comments found