Elliott Smith

Elliott Smith - Everything Reminds Me of Her guitar tab

Everything Reminds Me Of Her

transcribed by Ian

its a little sketchy but if you use the same kinds of licks during the

verses when

changing chords it sounds alright

intro:

e|-0------------------0----------------------------|

B|-3b5r3-1------1-1-1-3h4-4h5-3b5r3-1-----------1--|

G|---------2----------------------------0-------0--|

D|----------0-2-3-3-3-----------------2------------|

A|------------------3---------------3-----------3--|

E|----------------------------------------0-1-2-3--|

e|-0-------------------1-1-1-1---0---------------1-1-1-1-|

B|-3b5r3-1-----1-------1-1-1-1---1---------------1-1-1-1-|

G|---------2---2-------2-2-2-2---0-----2-2-4-4-0-2-2-2-2-|

D|-----------3---3-2-0---0-0-0-2-2-----2---------3-3-3-3-|

A|-------------------------------3-2-0-0---0-----3-3-3-3-|

E|-----------------------------------------------1-1-1-1-|

F C

i never really had a problem because of leaving

Am G F C

but everything reminds me of her this evening

F C A7

so if i seem a little out of it sorry

F G Am G F

why should i lie, everything reminds me of her

F C

? ? impaled a silhouette of the sun on a steeple

Am G F C

and i gotta hear the same sermon all the time you people

F C A7

why are we standing at the opposite place crying

F G Am G F

just because we came across then i lost it

Am G F

everything reminds me of her

Am G F

everything reminds me of her

Am G F

everything reminds me of her

then repeat the intro i think

Good luck

Get this song at:  amazon.com sheetmusicplus.com

Share your thoughts

0 Comments found