Elliott Smith

Elliott Smith - Drive All Over Town guitar tab

Drive All Over Town

tabbed by bunch

tune down one full step

Chords:

C7: X35353 C#: X46664

A#7: 686796 Gmin7: 35XX6X

A#7(2): X13131 A/Dmin: 5XXX6X

D#: X68886

What I will call the Dmin verse/intro is repeated throughout the song

and starts each verse. My advice is to arrange your fingers like it is

an

unusual chord. Pointer finger on the 3, middle on 5, ring on 6, and

pinky

on 7. It is a stretch, but that's what sounds most accurate.

INTRO: (Dmin Verse 1)

------3--3-3-------3--3-3--3-------------------------

------X-X-X--------6--7-7--6---------------------------

---------------------------------------REPEAT----------

-------------------------------------------------------

--5-------------5--------------------------------------

-----------------------------------------------------

(C7 Verse 2)

----3-----3---3--3----------------------------

----5-----6---5--3----------------------------

----3-----3---3--3----------------------------

----5-------------------------------------------

----3-------------------------------------------

-------------------------------------------------

Verse1 Verse2 A#7 D#

Two dollar color pictures from a photo booth

V1 V2 A#7 D#

Dirty stepped on lying out on the floor of their room

V1 V2 A#7 D#

Faces fell long in the half light

V1 V2 A#7 D#

He looks all wrong but that's her all right

Gmin7 A/Dim A#7(2)

Look at him smiling full of teeth

C7 C#

Clenched tight V1 V2 A#7 D#

V1 V2 A#7 D#

He knew the one time with the army captain

V1 V2 A#7 D#

He got one that whole deal before it happened

V1 V2 A#7 D#

Said its okay I knew exactly what you meant

V1 V2 A#7 D#

When you said you were an accident

Gmin7 A/Dmin A#7(2) C7 C#

But when it's 3am he wonders where in the hell she went

V1 V2 A#7 D#

And he'll drive all over town

V1 V2 A#7 D#

Drive all over town

V1 V2 A#7 D#

And he'll drive all over town

V1 V2 A#7 D#

Drive all over town

A A#

Until he tracks her down

A Dmin

He'll drive all over town

Get this song at:  amazon.com sheetmusicplus.com

Share your thoughts

0 Comments found