Elliott Smith

Elliott Smith - Cupid Trick guitar tab

Cupid's Trick

Tune down a full step

It's mainly a riff with a few chords in the chorus and later in the

song. I'll tab the riffs at the bottom.

Dm: XX0231 C: 335553

A: X02220 E: 022100

G6: 32000X C*: 332010

D: XX0232 F: 133211

Play Riff 1 2X's over verse

Vs.1

She's shaking down an

Absence they've know from shock

Reaching around for the

Hands of the clock

Dm

Should've died

Chorus

A G6 D

Pick me up it's my life

Riff c A G6 D

Shouldn't picked me up it's my life

Riff c A G6 D

Shouldn't picked me up it's my life

Riff c Riff 2

Shouldn't pick me up

Vs.2

Cupid's trick comes

Down to shake and deal

The stupid kick that

C D

Makes me real

F

Should've died

CHORUS

SOLO

Vs.3

A E

She's shaking down it's

C D A

Ever over and done

E

So kick me give me

C D Dm

Then I'll know

Chorus

Tab:

Riff 1

D |-2-2-2-2--7-7-7--6-|-6-6-6--9-9-9--10-|10-10-10--5-5-5-5--4-|

A |-0-0-0-0--0-0-0--0-|-0-0-0--0-0-0--0--|-0--0--0--0-0-0-0--0-|

D |-4-4-4--4-4-4--3--2-|

A |-0-0-0--0-0-0--0--0-|

During the chorus, one guitar just does

|-0h-1p-0h-1p-0-| over and over on the high e string.

Riff c

|--------------|e

|-0h1--3--3----|b

|------------0-|g

Riff 2

D |-2-2-2--7-7-7--6--5-|-5-5-5--4-4-4--3-|-2-|

A |-0-0-0--0-0-0--0--0-|-0-0-0--0-0-0--0-|-0-|

SOLO

|---------------| 1 -----------------|-------------------------|

|---------------| -8-8-8-8-8-8-8-8-|-7-7-7-7-----------------|

|-/7-7-7--5-----| -9-9-9-9-9-9-9-9-|-7-7-7-7-----------------|

|-----------7-7-| -----------------|----------9h10--12-12----|

|---------------| -----------------|----------------------10-|

|---------------| -----------------|-------------------------|

Play 1 twice

|-----------------|-----------------------|-----------------------|

|-8-8-8-8-8-8-8-8-|-7-7-7-7---------------|-8---------------------|

|-9-9-9-9-9-9-9-9-|-7-7-7-7--7------------|-9--7h9p7-----7--------|

|-----------------|-------------10--7--10-|----------10-7--10-7-7-|

|-----------------|-----------------------|-----------------------|

|-----------------|-----------------------|-----------------------|

|-------------------|---------------------|

|-------------------|------3-3-3-3-1------|

|-------------------|-----------------2-2-|

|-2-2-2-2-2-2--6--5-|--4---3--------------|

|-0-0-0-0-0-0--0--0-|--0---0--------------|

|-------------------|---------------------|

Get this song at:  amazon.com sheetmusicplus.com

Share your thoughts

0 Comments found