Elliott Smith

Elliott Smith - Condor Avenue guitar tab

Condor Avenue- Elliott Smith

Standard Tuning, Capo 1st Fret

By Cailean B.

[Intro]

e------------------------|

B------------------------|

G------------------------|

D-5--5--5--5--4--4--3--3-|

A------------------------|

E-3--3--3--3--2--2--1--1-|

[Verse]

[ E ] [ ? ] [ G ] [ C ]

e----0--0-0-0-----0--0-0-0-----x--x-x-x-----x--x-x-x-------------------------------

B----0--0-0-0-----0--0-0-0-----0--0-0-0-----0--0-0-0--------0--------------1-------

G----1--1-1-1-----2--2-2-2-----0--0-0-0-----0--0-0-0----------0---0----------0---0-

D----2--2-2-2-----0--0-0-0-----0--0-0-0-----0--0-0-0------2-----2--------2-----2---

A----2--2-2-2-----0--0-0-0-----2--2-2-2-----2--2-2-2--0h3------------0h3-----------

E-0--0--0-0-0--2--2--2-2-2--3--3--3-3-3--3--3--3-3-3-------------------------------

[D] [ C ][ Am ] [ G ] [Bm]Am EmC

e---------------------------------------------------------------|play all of

B---3---------------------1--1-1-1--1-1-1-3-1--3-33--3-33-1-0-1-|this once,

G---2--2p0----------------0--0-0-0--2-2-2-2-2--0-00--4-44-2-0-0-|then when

D-0---------4--2--4p0-----2--2-2-2--2-2-2-2-2--0-00--4-44-2-2-2-|when words

A----------------------3--3--3-3-3--0-0-0-0-0--2-22--2-22-0-2-3-|start play

E---------------------------------------------------------------|twice.

[Chorus]

[ E ] [ G ] [ Am ]

e----0--0-0-0-----x--x-x-x-----0--0-0-0--0--0--0-0-0-

B----0--0-0-0-----0--0-0-0-----1--1-1-1--1--1--1-1-1-

G----1--1-1-1-----0--0-0-0-----2--2-2-2--2--2--2-2-2-

D----2--2-2-2-----0--0-0-0-----2--2-2-2--2--2--2-2-2- Play this 3 times and

A----2--2-2-2-----2--2-2-2--0--0--0-0-0--0--0--0-0-0- then play:

E-0--0--0-0-0--3--3--3-3-3---------------------------

[ E ] [ D ] [ C ] [C/B][ C ][ C/G]

e----0--0-0-0-----2--2-2-2-----------------------------------------------|

B----0--0-0-0-----3--3-3-3-----1--1-1-1---11---11---1--1-1-1--1-11-------|then

G----1--1-1-1-----2--2-2-2-----0--0-0-0---00---00---0--0-0-0--0-00-------|go

D----2--2-2-2--0--0--0-0-0-----2--2-2-2---22---22---2--2-2-2--2-22-------|back

A----2--2-2-2---------------3--3--3-3-3-3-33-2-22-3-3--3-3-3-------------|to

E-0--0--0-0-0-------------------------------------------------3-33-2-1-0-|verse

[End On:]

[E]

e-0-|

B-0-|

G-1-|

D-2-|

A-2-|

E-0-|

You can figure out when to play what. Thats basically all there is to the song.Added by tabs-database.com and our distinguished partners

Get this song at:  amazon.com sheetmusicplus.com

Share your thoughts

0 Comments found