Elliott Smith

Elliott Smith - Condor Ave. guitar tab

Condor Ave tab

it can be played in standard tuning but sounds better with the

there are two distinctive guitars in the track. The guitar on the right

channel plays chords, the guitar on the left channel plays arpeggios.

INTRO

x-------------------

x-------------------

x-------------------

---5---5---4---3---

x-------------------

-3---3---2---1-----

MAIN CHORD SEQUENCE

--0----X----X----X--------------------0--------------0--

--0----3----X----0--------------------0--------------1--

--1----2----3----4--------------------0--------------0--

--2----0----0----0-------------2------2----------2---2--

--2----X----X----X-------0_3----------3----0_3-------3--

--0----2----2----3--------------------0--------------0--

E D D5# G hammer CM7 hammer C

--2---3-----------0----0----0----0----

--0---0-----------0----1----3----1----

--2---0-----------0----2----2----2----

--0---2---4--0----2----2----2----2----

--X---X-----------3----0----0----0----

--X---X-----------0----X----X----X----

D6 Em riff CM7 Am Asus4 Am

_____________

the left guitar plays :

--2---------------3-----0----

--0-------------3-------0----

--2-2_0---0---0---------0----

--0-----4---2------4-0--2----

--X---------------------3----

--X---------------------0----

D6 pull-off CM7

--2------2------X------X-------X----------------

--3------2------3------0-------1----------------

--4------3------2------0-------0----------------

--4------4------0------0-------2----------------

--2------4------0------2-------3----0-----------

--2------2------X------X-------X------0---------

Bm F# D5 G C then back to E

________________

very quick

SECOND CHORD SEQUENCE

--0----3----0-------------0----2----0----X----0-------------

--0----0----1-------------0----3----1----0----1-------------

--4----0----2-------------4----2----0----0----0-----0-------

--2----0----2-------------2----0----2----0----2-----0-------

--2----2----0-------------2----0----3----2----3-----0-------

--0----3----X-------------0----X----X----X----X---3---2-1---

(E5 G Am) X 3 then E5 D C G C riff

Song :

-Intro

-main chord sequence (instrumental) once

-main chord sequence with words (twice) :

E D D5# G

She took the oldsmobile out past Condor avenue

CM7 C D6

and she locked the car and stepped past

Em riff CM7

into rythmic quietude

Am/Asus4/Am Bm F# D G C

lights burning voice dry and hoarse

E D D5# G

i threw the screen day like a bastard back and forth

CM7 C D6 Em riff CM7

the chimes fell over each other i fell onto my knees

Am Bm F# D G C

the sound of car driving off made me feel diseased

-2ND chord sequence :

E5 G Am

a sick shouting like you hear at the fairground

E5 G Am

now i'm picking up to put away anything of yours that's still

E5 G Am

around I don't know what to do with your clothes or your letters

E5 D C G C

I'll make a whisper out of you...

tabbed by Laurent

Get this song at:  amazon.com sheetmusicplus.com

Share your thoughts

0 Comments found