Elliott Smith

Elliott Smith - Come To Me guitar tab

Come to me

By Elliott Smith

Tabbed by Fred Dutton

This is a really simple song, sounds like he wrote it pretty quickly. The

lyrics might be wrong.

Capo 1st fret

C(032010)

G(320003)

F(x33210)

Dm(xx0231)

Am(x02210)

E(022100)

Cadd9(032013)

Intro (basic picking pattern continues throughout song):

C G F C

------------------------------------------------------------

-------1-------------0-------------1-------------1----------

---0-----0---0---0-----0---0---2-----2---2---0-----0---0----

-----2-----2-------0-----0---3---3-----3-------2-----2------

-3-----------------------------------------3----------------

---------------3--------------------------------------------

Dm Am F

-------1----------------------------------------------------

---3-----3---3-------1-------------1-----1-----1------------

-----2-----2-----2-----2---2---2-----2-----2-----2---2------

-0-------------2---2-----2---3---3-----3-----3-----3--------

------------------------------------------------------------

------------------------------------------------------------

C Dm

I'm not into coming through

E F

More accustomed to falling out

Cadd9 Dm

Trying hard now as i can for you

E F

Not to trip up on some stupid doubt

C Dm

Got your hopes set way up high

E F

Way on up there where the air is thin

Cadd9 Dm

Limit's supposed to be the sky

E F

Trying not let you down again

C G F C

Starting to come to me

Dm Am F

Didnt know about, I hadn't figured it out

C G F F

But it's starting to come to me now

Dm Am F

A little bit too late

C Dm

I can't see anything you've done

E F

Any reason for the trouble you've got

Cadd9 Dm

You haven't heard anyone

E F

Compared to most i'd say you're quite alright

C Dm

I can't help you when you're sad

E F

That's a constant source of pain to me

Cadd9 Dm

Because i want you really bad

E F

Even though you make it seem like nothing

C G F C

Starting to come to me

Dm Am F

I didn't know about, I hadn't figured it out

C G F C

But it's starting to come to me now

Dm Am F

A little bit too late

Get this song at:  amazon.com sheetmusicplus.com

Share your thoughts

0 Comments found