Elliott Smith

Elliott Smith - Christian Brothers guitar tab

-------------------------------------------------------------------------------

Christian Brothers- Elliott Smith

-------------------------------------------------------------------------------

Tabbed by:Mike LaPoint

Email:

Tuning: tune down 1 whole step

(INTRO)

e-0-0-0-0-0-0-0-0---8--8--8--8--8--8--8--8-|

b-3-3-3-3-3-3-3-3---8--8--8--8--8--8--8--8-|

g-1-1-1-1-1-1-1-1---8--8--8--8--8--8--8--8-|

d-2-2-2-2-2-2-2-2--10-10-10-10-10-10-10-10-|

a-3-3-3-3-3-3-3-3--10-10-10-10-10-10-10-10-|

E------------------------------------------|

e---------------------------------------------------------|

b-6-6-6-6-6-6-6-6-8-8-8-8-8-8-8-8-10-10-10-10-10-10-10-10-|

g-x-x-x-x-x-x-x-x-x-x-x-x-x-x-x-x-xx-xx-xx-xx-xx-xx-xx-xx-|

d-8-8-8-8-8-8-8-8-8-8-8-8-8-8-8-8--8--8--8--8--8--8--8--8-|

a---------------------------------------------------------|

E---------------------------------------------------------|

e--------------------------------|

b-11--11--11--11--11--11--11--11-|

g-xx--xx--xx--xx--xx--xx--xx--xx-|

d-xx--xx--xx--xx--xx--xx--xx--xx-|(repeat once more)

a-11--11--11--11--11--11--11--11-|

E-12--12--12--12--12--12--12--12-|

Fill 1 Fill 2

e-------------------------| e---------------------|

b-----3---------4---------| b-------3-------------|

g-------------------------| g---------------------|

d---5---5---3p5----5--3---| d----5----------------|

a-------------------------| a---------------0-2-3-|

E-3-----------------------| E-3-------3-3-3-------|

C Cm

No bad dream fuckers' gunna boss me around

(Then play Fill 1)

C Cm

Christian Brothers gunna take him down,

(Fill 1)

F G#

but they can't help me get over

Play the whole intro again as the chorus plays , then use the same chords and fills as

above for verses .

Mike LaPoint

| / slide up

| \\ slide down

| h hammer-on

| p pull-off

| ~ vibrato

| + harmonic

| x Mute note

===============================================================================Added by tabs-database.com and our distinguished partners

Get this song at:  amazon.com sheetmusicplus.com

Share your thoughts

0 Comments found