Elliott Smith

Elliott Smith - Bled White guitar tab

-------------------------------------------------------------------------------

BLED WHITE - Elliott Smith

-------------------------------------------------------------------------------

Tabbed by: underrated

Email: webmaster at tabs-database.com.com

Tuning: Standard

Intro/verse

e|----(3)-------------------------------------------------|

B|----(3)-------------------------------------------------|

G|-12-(0)-----7-7/9-9-9\\7--7-7/9-9-9\\7--7-5-5-5-5-5-5-5-5-|

D|-12-(0)-X16-7-7/9-9-9\\7--7-7/9-9-9\\7--7-5-5-5-5-5-5-5-5-|

A|-10-(2)-----0-5/7-7-7\\5--0-5/7-7-7\\5--0-3-3-3-3-3-3-3-3-|

E|----(3)-------------------------------------------------|

Prechorus

e|-----------------------------------------------------------------------------|

B|-----------------------------------------------------------------------------|

G|-7-7/9-9-9\\7--7-7/9-9-9\\7--7-5-5-5-5-5-5-5--7-7/9-9-9\\7--7-5-5-5-7-7-7-7-7-7-|

D|-7-7/9-9-9\\7--7-7/9-9-9\\7--7-5-5-5-5-5-5-5--7-7/9-9-9\\7--7-5-5-5-7-7-7-7-7-7-|

A|-0-5/7-7-7\\5--0-5/7-7-7\\5--0-3-3-3-3-3-3-3--0-5/7-7-7\\5--0-3-3-3-0-5-5-5-5-5-|

E|-----------------------------------------------------------------------------|

Bled Whiiii... iiite

e|------5-------3----3-x-x-x-0-0-0-3-3-3-|

B|-----5-------5-----5-x-x-x-1-1-1-3-3-3-|

G|----6-------5------5-x-x-x-0-0-0-0-0-0-|

D|---7-------5-------5-x-x-x-2-2-2-0-0-0-|

A|--7-------3--------3-x-x-x-3-3-3-2-2-2-|

E|-5-------------------x-x-x-------3-3-3-|

Bridge

e|---------3-----2-----2-----0-----3-2-0------3----------------0-0-0----------|

B|---5---5---5-------3-----3-----0-------3--1------1-----------1-1-1----------|

G|-0---0-------0---0-----0-----0---------------------0---------0-0-0----------|

D|----------------------------------------------2------2-0-----2-2-2--0--0--0-|

A|---------------------------------------------------------2-3-3-3-3--2--2--2-|

E|--------------------------------------------------------------------3--3--3-|

Bridge (cont'd)

e|---------3-----2-----2-----0-----3-2-0------3---3-------5-----|

B|---5---5---5-------3-----3-----0-------3--1-------1-------3---|

G|-0---0-------0---0-----0-----0----------------------0-------0-|

D|----------------------------------------------2-------4-------|

A|--------------------------------------------------------------|

E|--------------------------------------------------------------|

Instrumental

e|---------3-------3---2---3---1---------3------0-0-0-x-x-1-1-1-3-3-3-|

B|---3---3---3-----------------------3-----3----1-1-1-x-x-0-0-0-3-3-3-|

G|---------------------------------0---0-----0--0-0-0-x-x-1-1-1-0-0-0-|

D|-5---5-------5-4---4---3---3------------------2-2-2-x-x-2-2-2-0-0-0-|

A|-------------------------------3--------------3-3-3-x-x-3-3-3-2-2-2-|

E|----------------------------------------------------x-x-------3-3-3-|

Outro

e|-2---0-2-3----------------------------------------|

B|---3----------------------------------------------|

G|-------------11-11-9--7----6--5--4----------------|

D|-------------------------------------8-8--7--6--5-|

A|-------------9--9--7--5----4--3--2----------------|

E|-------------------------------------6-6--5--4--3-|

| / slide up

| \\ slide down

| h hammer-on

| p pull-off

| ~ vibrato

| + harmonic

| x Mute note

===============================================================================

Added by tabs-database.com and our distinguished partners

Get this song at:  amazon.com sheetmusicplus.com

Share your thoughts

0 Comments found