Elliott Smith

Elliott Smith - Between The Bars guitar tab

Song: Behind the Bars

Artist: Elliot Smith

Tabbed by: Justin

Cool: Awesome

Tuning: Whole Step Down

I didnt change the string values on the left because i used a template.

I'm lazy. TUNE IT A WHOLE STEP DOWN.

Intro

e|---11----1-----------------|

B|---33----33----------------|

G|---22----------------------|

D|--2-----2------------------|

A|-0----0--------------------|

E|---------------------------|

Verse

In the verse, you can strum or finger pick the chord, just listen to the song

and do what sounds good, as long as you stay on the chord. Its pretty easy.

e|-3---1--3--3--3--1--3--3---1-------|

B|-1---1--1--1--1--1--1--1---1-------|

G|-2---2--0--0--2--2--0--0---2-------|

D|-2---3--2--0--2--3--2--2---3-------| x 2

A|-0---3--3--2--0--3--3--2---3-------|

E|-----1-----------1-----0---1-------|

Chorus

e|-1-3-3----------4-3-2-------1-3-3----------1-1-----|

B|-1-1-1----------4-1-2-------1-1-1----------1-1-----|

G|-2-0-2----------5-0-3-------2-0-2----------2-1-----|

D|-3-0-2----------6-0-4-------3-0-2----------3-3-----|

A|-3-2-0-2-3-5-7--6-2-4-------3-2-0-2-3-5-7--3-3-----|

E|-1-3------------4-3-2-------1-3------------1-1-----|

Verse Again

Chorus Again

Backing guitar in Verse 2

e|-------------------------------------------------------------------|

B|--------------------------------------------v444/5-----------------|

G|--2~-4~-5-7h5--2------4-2-0-----------------v55555--~2-2-4-5-7-5-2-|

D|----------------------------2-2~-2/5-3-2-2~------------------------|

A|-------------------------------------------------------------------|

E|-------------------------------------------------------------------|

e|--------|

B|--------|

G|---4-2--|

D|-2------| x2

A|--------|

E|--------|

Backing guitar for final chorus

Basically, just have another guitar with a different sound, possibly nylon,

play the bass chord notes along with the regular guitar, with an open string above it.

e|----------------------------------------------|

B|----------------------------------------------|

G|----------------------------------------------|

D|----------0-0-0-0----------------0-0-0-0------|

A|--------0-2-3-5-7--------------0-2-3-5-7------|

E|--1--3------------4-3-2---1--3-----------1----|

End on:

e|-1---|

B|-1---|

G|-1---|

D|-3---|

A|-3---|

E|-1---|

Cool. It might not be 100%. Im no Elliot Smith.Added by tabs-database.com and our distinguished partners

Get this song at:  amazon.com sheetmusicplus.com

Share your thoughts

0 Comments found