Elliott Smith

Elliott Smith - Amity guitar tab

Elliott Smith - Amity

Chords:

Asus4: x0223x

E7sus4: 02x23x

Fsharpminor+D: 20023x

F+D:10023x

E7: 02X13X

Dminor: xx0231

G7: 320001

C: x32010

F: 133211

G/D: x5503x

G: 320003

E: 022100

D: xx0232

Bminor+G: x2003x

VERSE ONE:

Asus4 E7sus

amity amity amity amity amity amity amity caught

Fsharpminor+D F+D E7sus4 E7

stars in her arms

Asus4 E7sus

hello hello kitty happy in new york city amity walking like a

Fsharpminor+D F+D E7sus4 E7

lucky charm

Dminor G7 C F

i'm a neon sign i stay open all the time

G/D riff 1.

so let's go, go go go

riff 1.

E-----------------

B---1------1--1--

G--2--2--0----0--

D-3-----2-----1--

A-----------------

E-----------------

VERSE TWO:

amity amity god don't make no junk but it's plain to see he still made

F C G E

me

F C G E

he told me so

F C G E

i'm good to go

F C G E riff 1.

i'm ready to go

SOLO with verse backing:

E-------------------------------------------------------------------

B-65-5-5----------8-8-8-----------10-10-10-8------------------

G----------5-7/87--------7/87-5--------------7-9-9-9-10-9---

D------------------------------------------------------------------

A------------------------------------------------------------------

E-------------------------------------------------------------------

E-----------------------------------------------------------------------

B-12-12-12-12/1312-10-12-12-12/1312-10------10------------

G------------------------------------------------12-12-----------------

D---------------------------------------------------------12-10-12-14-

A-----------------------------------------------------------------------

E-----------------------------------------------------------------------

C D F C

cos you laugh and talk and you make my world rock

Bminor+G E

i'm so, so so so

Asus4 E7sus Fsharpminor+D F+D E7sus4 E7

amity amity amity amity amity amity amity good to go

Tabbed by Sam Forrest. e-mail all comments, criticisms and so on to sforrest@tcroft.demon.co.uk

Email: forrest@tcroft.demon.co.uk

dfax: UK 0870 0520971 International +448700520971

-----------------------------------------------------------------------------------------------

Get this song at:  amazon.com sheetmusicplus.com

Share your thoughts

0 Comments found