Elliott Smith

Elliott Smith - Amanda Cecilia guitar tab

-----------------------------------------------------------------------------

AMANDA CECILIA - Elliott Smith

-----------------------------------------------------------------------------

By: Vivek M. (goatcow99@aol.com)

Intro Riff:=20

e|--2------------------------------------------------------------------|

B|--3--/7--7--7---5p3-5p3-5h6-6-5-3------------------------------------|

G|--2--/7--6--5---3---3---3---3-3-3------------------------------------|

D|--0---0--0--0---0---0---0---0-0-0------------------------------------|

A|---------------------------------------------------------------------|

E|---------------------------------------------------------------------|

play twice, then once with the second half extended twice as long, then right

before the verse:

e|-----6--5-----------------------------------------------------------|

B|--6--6--5-----------------------------------------------------------|

G|--3--7--6-----------------------------------------------------------|

D|--0--8--7-----------------------------------------------------------|

A|--------------------------------------------------------------------|

E|--------------------------------------------------------------------|

(this basic idea is repeated many times throughout with slight variations, the

chord and the descending thingy stay the same but the last part changes a bit,

just keep a finger on the 3rd fret of the G and B stings with the D open and

fool around with the 5th and 6th frets on the B, hammering on and pulling off)

Verses: D, A, Em, G F, D, D C Bb, D, D, then again with a C right before the chorus

Choruses: Bb, Bb, Gm, Gm, Eb, Eb, Gm, Gm, Bb, Bb, Gm, Eb, then into the riff

Bridge: D, D/F#, Gm, Gm/Bb Gm/C, three times, then just D, D/F#, Gm

Basically each comma separates a measure above, and here are the chords:

D A Em G F C Bb Gm Eb D/F# Gm/Bb Gm/C

e|--2---------0----3----1--------------3---------2------3------3-------|

B|--3----2----0----0----1----5----3----3----8----3------3------3-------|

G|--2----2----0----0----2----5----3----3----8----2------3------3-------|

D|--0----2----2----0----3----5----3----0----8----0------x------x-------|

A|-------0----2----2----3----3----1----x----6----x------1------3-------|

E|------------0----3----1--------------3---------2---------------------|

I think that's it, obviously to get the timing and strumming exactly, listen to

the damn song. If you have any questions or just want to tell me how cool I am

or anything, e-mail me. I hope someone finds this useful, given that not many

people in the world have heard this song enough, want to play it, and actually

play guitar. Oh well. Bye.

Get this song at:  amazon.com sheetmusicplus.com

Share your thoughts

0 Comments found