Elliott Smith

Elliott Smith - A Question Mark guitar tab

Elliott Smith - A Question Mark

VERSE ONE:

i've got a question mark

e ---------------------------------------0-0-0--4-2--0-0-0--4-2-

b ---------------------------------------0-0-0-------0-0-0-----

g ---------------------------------------1-1-1--4-2--1-1-1--4-2--

d ---------------------------------------2-2-2--------2-2-2-----

a -5-5 5-5-5-5-5-5- 4--0--------------2-2-2--------2-2-2---

e --------------------------3-3-3-3-3--0-0-0--------0-0-0--

you got a need to always take some shot in the dark

e --------------------------------------------------------

b --------------------------------------------------------

g --------------------------------1-1-1--4-2--1-1-1--4-2---

d --------------------------------2-2-2--6-4--2-2-2--6-4---

a --5-5-5-5-5--5-5 4-0-3-3-3--2-2-2--------2-2-2---------

e -------------------------------0-0-0--------0-0-0----

i don't have to make pretend the picture i'm in is totally clear

e --------------------------------------------------------

b --------------------------------------------------------

g --------------------------------1-1-1--4-2--1-1-1--4-2---

d -7--5--3-----------------------2-2-2--6-4--2-2-2--6-4---

a --------------------------------2-2-2--------2-2-2---------

e -8--7--5-----------------------0-0-0--------0-0-0----

you think that all things have a way they ought to appear

e ---------------------------------------------------

b ---------------------------------------------------

g --------------------------------1-1-1---1-1-1---

d -7--5--3-----------------------2-2-2---2-2-2---

a --------------------------------2-2-2---2-2-2---

e -8--7--5-----------------------0-0-0---0-0-0----

CHORUS:

cos you know you know you know you know

C B C E

you know you know you know you know

C B C E

you know i don't i dream

C B C

don't know what it means

C B C E

VERSE TWO:

panic called you out and took you in

giving you an easy game and letting you win

you're giving back a little hatred now to the world

cos it treated you bad

cos you couldn't keep the great unknown from making you mad

CHORUS

BREAK:

said your final word but honesty and love could've kept us together

e -2---------0-----0----------------------2----------

b -0---------1-----1----------------------0----------

g -0---------2-----0----------------------0-----------

d -0---------2-----2----------------0 4---0----------

a ------------0----3---------2-0-3------------------

e -3-------------------0-2-3--------------3-----------

(also combined with this bit)

e -4--2--0--------------------------------------

b -4--2--0-----3--------------0---0------------

g -----------/4---4--0--2--2--2----2--0------

d -----------------------------------------------

a -----------------------------------------------

e -----------------------------------------------

one day you'll see it's worth it after all

e -2---------0-----0-----------0---

b -0---------1-----1-----------1----

g -0---------2-----0-----------2-----

d -0---------2-----2-----------2----

a ------------0----3---------2-0------

e -3-------------------0-2-3---------

if you ever want to say you're sorry you can give me a call

e --------7----7-----------------8----8------------

b --------7------7---------------8------8--10-8---

g --------8---------8------------9--------9--------

d --------9----------------------10-----------------

a --------9----------------------10---------------

e --------7-----------------------8----------------

INSTRUMENTAL: same as chorus

tabbed by Sam Forrest. any suggestions or comments or whatver to s.forrest@tcroft.demon.co.uk

Email: forrest@tcroft.demon.co.uk

dfax: UK 0870 0520971 International +448700520971

-----------------------------------------------------------------------------------------------

hello, i'm joao from portugal. i think that in this parts that are both

tabbed in a similar way...

"

you think that all things have a way they ought to appear

and

i don't have to make pretend the picture i'm in is totally clear"

....before de chorus

were it is

e --------------------------------------------------------

b --------------------------------------------------------

g --------------------------------1-1-1--4-2--1-1-1--4-2---

d -7--5--3-----------------------2-2-2--6-4--2-2-2--6-4---

a --------------------------------2-2-2--------2-2-2--------

e -8--7--5-----------------------0-0-0--------0-0-0----

in my opinion should be

e --------------------------------------------------------

b --------------------------------------------------------

g --------------------------------1-1-1--4-2--1-1-1--4-2---

d -7--5--4-----------------------2-2-2--6-4--2-2-2--6-4---

a --------------------------------2-2-2--------2-2-2--------

e -8--7--5-----------------------0-0-0--------0-0-0----

It sounds me better in my guitar.

Thanks

Get this song at:  amazon.com sheetmusicplus.com

Share your thoughts

0 Comments found