Elliott Smith

Elliott Smith - 2:45 Am guitar tab

2:45 am

Elliott Smith

Tabbed by: gnarlyowen

Chords used:

Em C G A7sus4

e|--0-----0-----3-----0---|

b|--0-----1-----3-----3---|

g|--0-----0-----0-----0---|

d|--2-----2-----0-----2---|

a|--2-----3-----2-----0---|

e|--0-----x-----3-----x---|

Intro:

e|---------------00003-| e|---------------00003-| e|---------------00003-| e|---------------

b|---------------00113-| b|---------------00113-| b|---------------00113-| b|---------------

g|---------------00000-|x2 g|---------------00000-| g|---------------00000-| g|---------------

d|---------0-2-3-22220-| d|---------0-----22220-| d|---------0-2-3-22220-| d|---------0-2-3-

a|---0-2-3-------22332-| a|---0-2-3-------22332-| a|---0-2-3-------22332-| a|---0-2-3-------

e|-3-------------00xx3-| e|-3---------2-1-00xx3-| e|-3-------------00xx3-| e|-3-------------

Verse 1:

e|-00003---------------|

b|-00113---------------|

g|-00000---------------|x7

d|-22220---------0-2-3-|

a|-22332---0-2-3-------|

e|-00xx3-3-------------|

Chorus

e|-0-0-|

b|-3-1-|

g|-0-0-|

d|-2-2-|

a|-0-3-|

e|-x-x-|

Get this song at:  amazon.com sheetmusicplus.com

Share your thoughts

0 Comments found