Elevator To Hell

Elevator To Hell - Anyalysis 13 guitar tab

Anyalysis 1313

*This song is played a 1/2 step down*

Intro:

e|-----------------------------------|

B|-----------------------------------|

G|--4-4-4-4-4-4-4-4------------------|

D|--4-4-4-4-4-4-4-4-5-5-5-5-5-5-5-5--|

A|--2-2-2-2-2-2-2-2-5-5-5-5-5-5-5-5--|

E|------------------3-3-3-3-3-3-3-3--|

Verse:

e|-------------------------------------------------------------------|

B|-------------------------------------------------------------------|

G|--------------------------------------------------4-4-4-4-4-4-4-4--|

D|--2-2-2-2-2-2-2-2-7-7-7-7-7-7-7-7-5-5-5-5-5-5-5-5-4-4-4-4-4-4-4-4--|

A|--2-2-2-2-2-2-2-2-7-7-7-7-7-7-7-7-5-5-5-5-5-5-5-5-2-2-2-2-2-2-2-2--|

E|--0-0-0-0-0-0-0-0-5-5-5-5-5-5-5-5-3-3-3-3-3-3-3-3------------------|

1A. Sleep in late so I don't smoke so much

I don't walk around in a rush

And I'm sick of thinking that your'e thinking that I'm thinking

about

Trying not to use my head

Lead; Part 1:

e|-------------------------|

B|--------------3-3-3-3-3--|

G|--0-1-2-3-4--4-4-4-4-4---|

D|-------------------------|

A|-------------------------|

E|-------------------------|

1B. And I'm sick of thinking

And I'm so bored of saying I'm..

Not one questions got one answer

And even of you I know couldn't agree with me

Lead; Part 2:

e|----4---5--7-5h7-5h7--|

B|--5---5--7------------|

G|----------------------|

D|----------------------|

A|----------------------|

E|----------------------|

Chorus/Bridge:

e|-------------------------------------------------------------------|

B|-------------------------------------------------------------------|

G|--9-9-9-9-9-9-9-9-7-7-7-7-7-7-7-7-4-4-4-4-4-4-4-4-4-4-4-4-4-4-4-4--|

D|--9-9-9-9-9-9-9-9-7-7-7-7-7-7-7-7-4-4-4-4-4-4-4-4-4-4-4-4-4-4-4-4--|

A|--7-7-7-7-7-7-7-7-5-5-5-5-5-5-5-5-2-2-2-2-2-2-2-2-2-2-2-2-2-2-2-2--|

E|-------------------------------------------------------------------|

2A. I've analyzed and came to the conclusion not to think

It's best just not deciding at all

Lead; Part 1:

e|-------------------------|

B|--------------3-3-3-3-3--|

G|--0-1-2-3-4--4-4-4-4-4---|

D|-------------------------|

A|-------------------------|

E|-------------------------|

2B. And I'm sick of thinking

And I'm so bored of saying I'm

Not one questions got one anwswer

And I've decided that theres no use in trying to question at all

Lead; Part 2:

e|----4---5--7-5h7-5h7--|

B|--5---5--7------------|

G|----------------------|

D|----------------------|

A|----------------------|

E|----------------------|

2C. And I'm not there

No I'm not there

Yeah I'm in here

Yeah I'm in here

Tabbed by Iwilbur@is2.dal.ca

Get this song at:  amazon.com sheetmusicplus.com

Share your thoughts

0 Comments found