El Retorno De Exxon Valdez

El Retorno De Exxon Valdez - Las Comidas guitar tab

Author/Artist: El Retorno de Exxon Valdez

Title: Las comidas

Album: Los Hits

Transcribed by: Diego Vasquez (Sk8Warrior)

Email: d-sk8@al-dieblo.zzn.com

Stardard Tuning

------------------------------------------------------------------------------

------------------------------------------------------------------------------

------------------------------------------------------------------------------

-9-----7-----9----------------------------------------------------------------

-9-----7-----9----------------------------------------------------------------

-7-----5-----7----------------------------------------------------------------

------------------------------------------------------------------------------

------------------------------------------------------------------------------

---------9-7-9---------9-7-9--------------------------------------------------

-7-7-7-7-9-7-9-9-9-9-9-9-7-9--------------------------------------------------

-7-7-7-7-7-5-7-9-9-9-9-7-5-7--------------------------------------------------

-5-5-5-5-------7-7-7-7--------------------------------------------------------

------------------------------------------------------------------------------

---10-------------------------------------------------------------------------

-9-9--7-7-7-7-7-7-7-7---------------------------------------------------------

-9-7--7-7-7-7-7-7-7-7---------------------------------------------------------

-7----5-5-5-5-7-7-7-7---------------------------------------------------------

------------------------------------------------------------------------------

Get this song at:  amazon.com sheetmusicplus.com

Share your thoughts

0 Comments found