El Dorado

El Dorado - Jazz Song guitar tab

BAND: EL dorado

song: Jazz Song

introriffs: guitar 2X by self

E------------------------------------------------

B------------------------------------------------

G---------------------------0-2-3-2-0---0-2-3-2-0

D--0-2-3-2-0---0-2-3-2-0---2---------2-2---------

A-2---------2-2---------2-3----------------------

E3-----------3-----------------------------------

chorus 4X

E-------------

B-------------

G----4-4-5-5-7

D5-5-4-4-5-5-7

A5-5-2-2-3-3-5

E3-3----------

Riff#2

same

chorus #2

same

ending

E---

B---

G5~-

D5~5

A3~5

E--3daniel

skate259582@aol.com

Get this song at:  amazon.com sheetmusicplus.com

Share your thoughts

0 Comments found