El Dorado

El Dorado - Alone Time guitar tab

BAND: EL DORADO

SONG: ALONE TIME

INTRO:

e-------------------------

b-------------------------

g0-0-0-0-4-0-0-0-0-0-0-5-7 2ND PART END ON

d------------------------- 7-5

a-------------------------

e-------------------------

riff#1

e-------------------------

b-------------------------

g-------------------------

d5~~~~~~~~~~~~~

a5~~~~~~~~~~~~~

e3~~~~~~~~~~~~~

CHORUS

E-------------------------------

B-------------------------------

G----------------5-5-5-5-7-7-7-7

D5-5-5-5-2-2-2-2-5-5-5-5-7-7-7-7

A5-5-5-5-2-2-2-2-3-3-3-3-5-5-5-5

E3-3-3-3-0-0-0-0----------------

DANIEL

e-MAIL SKATE25958@AOL.COM

Get this song at:  amazon.com sheetmusicplus.com

Share your thoughts

0 Comments found