El Dorado

El Dorado - Advice guitar tab

band:EL dorado

song:advice

intro:clean for 2X then dist.for4X

E-------------------------------

B-------------------------------

G8-8-8-8------------------------

D8-8-8-8-8-8-8-8-8-8-8-8-8-8-8-8

A6-------8-8-8-8-8-8-8-8-8-8-8-8

E--------6-------8-------6------

riff#1 4X

E------------------------------------------

B------------------------------------------

G8~~~~~~~-8-0-8-0--------------------------

D8~~~~~~~---------8-0-8-0-10-0-10-0-8-0-8-0

A6~~~~~~~----------------------------------

E------------------------------------------

chorus#1 4X

E-----------------------------------

B-----------------------------------

G8-8-8-8----------------------------

D8-8-8-8-8-8-8-8-10-10-10-10-6-6-6-6

A6-6-6-6-8-8-8-8-10-10-10-10-6-6-6-6

E--------6-6-6-6--8--8--8--8-4-4-4-4

riff#2

same

chorus#2 8X

bridge 8X

same as chorus just palm muted

chorus#3 8X

daniel

skate25958@aol.com

Get this song at:  amazon.com sheetmusicplus.com

Share your thoughts

0 Comments found