Ekhymosis

Ekhymosis - La Decision guitar tab

this is not a new band they're actualy seperated and the frontman is now known as Juanes

but i still think that they should have their own page of tabs so please accept it as an

Ekhymosis tab, thanx. THEY REALLY DO EXIST!!!

-----------------------------------------------------------------------------

La Decision - Ekhymosis

-----------------------------------------------------------------------------

tabbed by: Lucero Castaneda - lucerojuanesfan

e-mail: juanes_fan1@hotmail.com

well this is the solo to the song its really easy and it sounds exactly the same.

~ vibrato

/ slide up

h hammer-on

p pull-off

e|--12-----12--11-----11--9------9--5/7----------------------|

b|------9----------9---------10-----------------9--10--12~---|

g|---------------------------------------9--11---------------|

d|-----------------------------------------------------------|

a|-----------------------------------------------------------|

e|-----------------------------------------------------------|

e|-----------------------------------------------------------|

b|--12/14--12--10--9-----------------------------------------|

g|--------------------11--9~-----------8--9--8---------------|

d|----------------------------9--9/11-----------11--9~-------|

a|-----------------------------------------------------------|

e|-----------------------------------------------------------|

e|--------------------------------------------------7/9~--9~-|

b|------------------9--10--12--10/12~--12--14--12~-----------|

g|-----------9--11-------------------------------------------|

d|--9h11h12--------------------------------------------------|

a|-----------------------------------------------------------|

e|-----------------------------------------------------------|

~~~~~~~~~~~~~~~

e|-----------------------------------------------------------|

b|--10--10--14--12~--10p9------------------------------------|

g|-------------------------11--9-----------------------------|

d|-----------------------------------------------------------|

a|-----------------------------------------------------------|

e|-----------------------------------------------------------|

e|--12-----12--11-----11--9----------------------------------|

b|------9----------9---------10/14--12~~~--10--9-------------|

g|------------------------------------------------11--9~~~---|

d|-----------------------------------------------------------|

a|-----------------------------------------------------------|

e|-----------------------------------------------------------|

Get this song at:  amazon.com sheetmusicplus.com

Share your thoughts

0 Comments found