Edgewater

Edgewater - Qutter guitar tab

Title: Quitter

Artist: Edgewater

Album: South of Sideways

Instrument: Guitar

Tabbed by: Steve Brown (semberguitars@yahoo.com)

Tuning: (C G C G A# C)

Written by: Micah Creel, Justin Middleton, Matt Moseman, Jeremy Rees, and Ricky Wolking

Intro (Riff A)

C|-------------------------------------------------------------------||

A#|-------------------------------------------------------------------||

G|-------------------------------------------------------------------||

C|-------------------------(5)---------------------------------------||

G|-------------------------------------------------------------------||

C|-0--0-0-(3)-0-(3)-0-(2)-0---0-1-0--0-0-(3)-0-(3)-0-(2)-0-(2)-0-1---||

()=natural harmonics

Verse (Riff B)

C|--------7----------------------------------------------------------||

A#|----------0--------------------------------------------------------||

G|------------------------------------------8------12----------------||

C|---------------------5-7-5--------5-7-5/7---7/10----0--------------||

G|-------------------------------------------------------------------||

C|-8--8-8-----0-3--3-3-------0--0-0----------------------------------||

p.m....... ...... ......

C|--------7----------------------------------------------------------||

A#|----------0--------------------------------------------------------||

G|-------------------------------------------------------------------||

C|----------------------5-7-5--------5-7-5-3-7-3-2-7-----------------||

G|-------------------------------------------------------------------||

C|-8--8-8------0-3--3-3-------0--0-0-----------------0---------------||

p.m....... ...... ......

C|--------7----------------------------------------------------------||

A#|----------0--------------------------------------------------------||

G|------------------------------------------8------12----------------||

C|---------------------5-7-5--------5-7-5/7---7/10----0--------------||

G|-------------------------------------------------------------------||

C|-8--8-8-----0-3--3-3-------0--0-0----------------------------------||

p.m....... ...... ......

C|--------7----------------------------------------------------------||

A#|----------0--------------------------------------------------------||

G|---------------------------------------55555/77777-----------------||

C|---------------------5-7-5-----------------------------------------||

G|---------------------------0--0-0--0-0-55555/77777-----------------||

C|-8--8-8-----0-3--3-3-------0--0-0--0-0-----------------------------||

p.m....... ......

Chorus (Riff C)

C|-------------------------------------------------------------------||

A#|-------------------------------------------------------------------||

G|-----------------------------------7-----7-----8-------------------||

C|-8-8-8-8-7-0-3-3-3-3-7-7----xxx------------------------------------||

G|-8-8-8-8-7-0-3-3-3-3-7-7----xxx----7-----7-----8-------------------||

C|-8-8-8-8-7-0-3-3-3-3-7-7-0--xxx--0---0-0---0-0---0-----------------||

C|-------------------------------------------------------------------||

A#|-------------------------------------------------------------------||

G|-----------------------------------10-----10-----12----------------||

C|-8-8-8-8-7-0-3-3-3-3/7-7----xxx------------------------------------||

G|-8-8-8-8-7-0-3-3-3-3/7-7----xxx----10-----10-----12----------------||

C|-8-8-8-8-7-0-3-3-3-3/7-7-0--xxx--0----0-0----0-0----0--------------||

C|-------------------------------------------------------------------||

A#|-------------------------------------------------------------------||

G|---------------------------------7-----7-----5---------------------||

C|-8-8-8-8-10/3-3-3-3/7-7----xxx-------------------------------------||

G|-8-8-8-8-10/3-3-3-3/7-7----xxx---7-----7-----5---------------------||

C|-8-8-8-8-10/3-3-3-3/7-7-0--xxx-0---0-0---0-0-----------------------||

C|-------------------------------------------------------------------||

A#|-------------------------------------------------------------------||

G|-------------------------------------------------------------------||

C|-8-8-8-8-7-0-3-3-3-3-3-3-1-----1-----1-----1-3-1-------------------||

G|-8-8-8-8-7-0-3-3-3-3-3-3-1-----1-----1-----1-3-1-------------------||

C|-8-8-8-8-7-0-3-3-3-3-3-3-1-----1-----1-----1-3-1-------------------||

Bridge (Riff D)

C|--------------------------|----------------------------------------||

A#|--------------------------|----------FIRST-TIME--------------------||

G|--------------------------|----------------------------------------||

C|-0--0-0-3-0-5-0-7-0-3-0-1-|-0--0-0-3-0-5-0-7-0-10-0-1-0------------||

G|-0--0-0-3-0-5-0-7-0-3-0-1-|-0--0-0-3-0-5-0-7-0-10-0-1-0------------||

C|-0--0-0-3-0-5-0-7-0-3-0-1-|-0--0-0-3-0-5-0-7-0-10-0-1-0------------||

C|-------------------------------------------||

A#|--------------SECOND-TIME------------------||

G|-------------------------------------------||

C|-0--0-0-3-0-5-0-7-0-10-10-10-10-0--10-0----||

G|-0--0-0-3-0-5-0-7-0-10-10-10-8--0--8--0----||

C|-0--0-0-3-0-5-0-7-0-10-10-10-8--0--8--0----||

Breakdown (Riff E)

C|-------------------------------------------------------------------||

A#|-------------------------------------------16----16----------16----||

G|-------15----15----------15----15-------12----12----12----12----12-||

C|----15----15----15----15----15----15-12----------------12----------||

G|-13----------------13----------------------------------------------||

C|-------------------------------------------------------------------||

C|-------------------------------------------------------------------||

A#|-16----------------12----------------------------------------------||

G|----12----------12----12-10-------15----15-------------------------||

C|-------------15----------------15----15----15----------------------||

G|----------15----------------13----------------13-------------------||

C|-------15----------------------------------------------------------||

(Riff F)

C|-------------------------------------------------------------------||

A#|-------------------------------------------------------------------||

G|---------------------7---------------------------------------------||

C|--------3---3---/7----------------3---3---/7---7^------------------||

G|-----------------------------------------------7^------------------||

C|-0--0-0---0---0----0---0-1-0--0-0---0---0----0---------------------||

End (Riff G)

C|-------------------------------------------------------------------||

A#|-------------------------------------------------------------------||

G|-------------------------------------------------------------------||

C|-0--0-0-3-0-5-0-7-0-3-0-5-0-7-0-3-0-5-0-7-0-10/1-0-----------------||

G|-0--0-0-3-0-5-0-7-0-3-0-5-0-7-0-3-0-5-0-7-0-10/1-0-----------------||

C|-0--0-0-3-0-5-0-7-0-3-0-5-0-7-0-3-0-5-0-7-0-10/1-0-----------------||

QUITTER

Intro: Riff A (2x)

Verse 1: Riff B (1x)

So disappointed, always a step behind

Can't you hear all of the noises

Scraping the back of my mind?

Did you realize that I so dispise all those times I've wasted counting on you?

Yeah, I'm so sick of being used

Chorus: Riff C (1x)

Why can't you see, I'm falling apart

Why are you walking from me?

Why can't you see it the silence is jaded

So shut your mouth, 'cause I'm sick of it

The time has come just to call it quits

And walk away, let me be

Verse 2: Riff B (1x)

Such an insult, such a traitor what defines the name that you cater

Such a curse, such a quitter all I hear is the words that you shattered

Did you realize that I so despise all those times I've wasted counting on you? (Fuck you)

I'ms o sick of being used

Chorus: Riff C (1x)

Bridge: Riff A (2x) & Riff D (2x)

Walk away

Breakdown: Riff E (2x)

So disappointed as you walk away as you walk away

Dead and avoided as you slip away and you kneel and pray

Bass lead (2x) then Riff F (1x)

Riff D (2x)

Chorus: Riff C (1x)

End: Riff A (1x) & Riff G (1x)

Walk away

Get this song at:  amazon.com sheetmusicplus.com

Share your thoughts

0 Comments found