Earl Scruggs

Earl Scruggs - The Ballad Of Jed Clampett banjo guitar tab

Good beginner's song for banjo. Notes that have two spaces

in between are half notes. Notes that have one space

between are quarter notes.

2/5 : slide from 2 to 5 quickly

repet : repeat section twice

||-0--------------0-----0--------0-------0-----2---2------

||-------------------0-------0-------0-------1-------1----

||-0-----------0-----------2-------2---0---2-----------2--

||----0--2--4---------------------------------------------

||----------------0-----0------0-----------------0--------

|-2------4-------4------4-------0-------4-------0---0------

|------3-----3--------3-----3-------3-------3--------------

|--------------2--------------0---2-------2-------0-----0--

|---0--------------4--------------------------4------------

|----------0--------------0-----------0---------------0----

|-0-----0--------0-----0-------0-----0-------0-------0-----

|----------------------------------------0-------0---------

|---0----------0---0---------0-----0---2-------2---0-------

|-----2---0----------2---2/5-------------------------------

|------------0-------------------0---------0---------------

|--------2---2-------3-----0-------4----------4-----4------

|-1----1-----1--2------2------3------3---3------3-----3----

|----------------------------------------------------------

|----------------------------------------------------------

|----0-----0-------0-----0-------0-----0----0-----0-----0--

|-4------4-------0----0--------0----0--------0----0--------

|--------------------------0-------------0-------------0---

|------------0-----0-----2-------0-----2-------0-----2-----

|---0------2---4-------------------------------------------

|------0--------------0------0------0------0------0------0-

|-0----0--------0----

|-----------0--------

|---0-----2-------0--

|--------------------

|------0------0------

||r--------------0-----0--------0-------0-----2---2--------

||e-----------------0-------0-------0-------1-------1------

||p-----------0-----------2-------2---0---2-----------2----

||e--0--2--4-----------------------------------------------

||t--------------0-----0------0-----------------0----------

|-2------4-------4------4-------0-------4-------0---0------

|------3-----3--------3-----3-------3-------3--------------

|--------------2--------------0---2-------2-------0-----0--

|---0--------------4--------------------------4------------

|----------0--------------0-----------0---------------0----

|-0-----0--------0-----0-------0-----0-------0-------0-----

|----------------------------------------0-------0---------

|---0----------0---0---------0-----0---2-------2---0-------

|-----2---0----------2---2/5-------------------------------

|------------0-------------------0---------0---------------

|--------2---2-------3-----0-------4----------4-----4------

|-1----1-----1--2------2------3------3---3------3-----3----

|----------------------------------------------------------

|----------------------------------------------------------

|----0-----0-------0-----0-------0-----0----0-----0-----0--

|-4------4-------0----0--------0----0--------0----0--------

|--------------------------0-------------0-------------0---

|------------0-----0-----2-------0-----2-------0-----2-----

|---0------2---4-------------------------------------------

|------0--------------0------0------0------0------0------0-

|-0----0--------0----r||------||

|-----------0--------e||------||

|---0-----2-------0--p||--0---||

|--------------------e||------||

|------0------0------t||------||

1x

Get this song at:  amazon.com sheetmusicplus.com

Share your thoughts

0 Comments found