Earl Scruggs

Foggy Mountain Breakdown Tabs



More from Earl Scruggs

Earl Scruggs Tabs
Earl Scruggs Chords
Earl Scruggs Lyrics



E[ ---------33-----33-----33-----------------------|

B[-0-1-2/3----2/3---2/3 ---3-----------------------|

G[------------------------------0------------------|

D[-------------------------------------------------| R1

A[-------------------------------------------------|

E[-------------------------------------------------|



E[--------3--33---33-----------------------------------|

B[---------0--0---2/3--3--------------------------------|

G[----------00--------0 R2 X 2-|

D[0-1-2-------------------------------------------------|

A[------------------------------------------------------|

E[------------------------------------------------------|



E[---------22-------------------------------------|

B[0-1-2/333--------------------------------------|

G[-----------------0-------------------------------| R3

D[-------------------------------------------------|

A[-------------------------------------------------|

E[-------------------------------------------------|



E[---------------------------------|

B[---------------------------------|

G[-----------0---------------------|

D[------0h2------------------------| R4

A[--0h2----------------------------|

E[3--------------------------------|



Solo

E[10------10------10------------------------------------------------------10 Tremolo Pick^^^^^--|

B[---10vv---10vv---10-108-8-8-8-8---------------------------8-8-10-Tremolo Pick^^^^^8----------|

G[-----------------------------------9-9-9-9-7-----------7-7-9-7-9-9----------------------------|

D[-----------------------------------------------7-5-5-7/9-9------------------------------------|

A[----------------------------------------------------------------------------------------------|

E[----------------------------------------------------------------------------------------------|

Repeat R1 R2 R3 and end on R4. The Rythmic cords are G D and C.Just download the song

you can figure it out by ear. P.S. These notes are 16th notes.Added by tabs-database.com and our distinguished partners
Get this song at amazon.com      Ebay     Ringtones Ringtones  


Learn to play: Songwriting, Piano, Harmonica, Guitar
Also available at Muzikum: Earl Scruggs - Foggy Mountain Breakdown lyrics

Related Earl Scruggs Tabs

Foggy Mountain Breakdown tabs
Duelling Banjos tabs
My Tennessee Mountain Home tabs
Foggy Mountain Breakdown Guitar Arr tabs
You Are My Flower tabs
Foggy Mountain Breakdown banjo tabs
Dear Old Dixie banjo tabs
The Ballad Of Jed Clampett banjo tabs
Cripple Creek banjo tabs


Guitar Tabs









All tabs are property and copyright of their owners. All tabs provided for educational purposes only. Privacy Policy, DMCA