Earl Scruggs

Foggy Mountain Breakdown banjo Tabs



More from Earl Scruggs

Earl Scruggs Tabs
Earl Scruggs Chords
Earl Scruggs Lyrics

p : pull-off    *
h : hammer-on   *
s : slide       *
*****************

G Tuning
Listen for timing.


-0-|-------0-----0---------0-----0---------0-----0---------0-------2------
---|-2h3-2h3---0-----2h3-2h3---0-----2h3-2h3-------------------------0----
-0-|-------------------------------------------3p2---0---0---0---------0--
---|-----------------------------------------------------------1s2--------
-0-|---------0-----0---------0-----0---------0-----0---0------------------


--------2---2-----2---0-----0-----0-------0-------2-----------2---2-----0-
------0-------0-------------------------------------0-------0-------0-----
----------------0---0-----2s4-0-----0---0---0---------0---------------0---
--0h2---------------------------2p0-----------1s2-------0h2---------------
----------0-------------0-------------0-------------------------0---------


----0-----0-----0---0-----0-----0-----0-----0---------0-----0---------0---
------------------------------------2h3---3-----2h3-2h3-------------------
--0-----2s4-0-----0-----2s4-0-----------------------------3p2---0---2s4-0-
--------------2p0-------------2---0---------------------------------------
------0---------------0-----------------0-----0---------0-----0---0-------
           
 [1]              [2] 
----0---0---0-r|--------0-----0-|----------0-----0---------0-----0--------
----------0---e|----------------|------0---------------2h3-----3----------
------0-------p|--0---0---0-----|--------0-----0-----2---------------3p2--
--2-----------e|------------0---|--2s5------------------------------------
--------0---0-t|----0-----------|------------0-----0---------0-----0------


--0-------0-----0---------0-------------2---------2---2-----2---0-----0---
--------------------0-----------0---------0-------------------------------
--------0-----0-------3p2---3p2---0---------0-----------0-----0-----2s4-0-
----2s5-----------------------------0h2-------1h2---------2---------------
------------0-----0---------------------------------0-------------0-------


----0-------0-------2---------2---2-----0---0-----0-----0---0-----0-----0-
----------0-----------0---------------------------------------------------
------0-------0---------0-----------0-----0-----2s4-0-----0-----2s4-0-----
--2-------------1s2-------0h2---------2---------------2---------------2---
--------0-----------------------0-------------0---------------0-----------


--------0-------0-----0-----0---0-----0---------0-----0---|
----2h3-----2h3-----3-----2h3-2h3-------------------------|
------------------------------------3p2---0---2s4-0-----0-|
--0-------0-----------------------------------------2p0---|
------------------0-----0---------0-----0---0-------------|
Get this song at amazon.com      Ebay     Ringtones Ringtones  


Learn to play: Songwriting, Piano, Harmonica, Guitar
More Earl Scruggs lyrics available at Muzikum

Related Earl Scruggs Tabs

Foggy Mountain Breakdown tabs
Duelling Banjos tabs
My Tennessee Mountain Home tabs
Foggy Mountain Breakdown Guitar Arr tabs
You Are My Flower tabs
Foggy Mountain Breakdown banjo tabs
Dear Old Dixie banjo tabs
The Ballad Of Jed Clampett banjo tabs
Cripple Creek banjo tabs


Guitar Tabs









All tabs are property and copyright of their owners. All tabs provided for educational purposes only. Privacy Policy, DMCA