Earl Scruggs

Cripple Creek banjo Tabs



More from Earl Scruggs

Earl Scruggs Tabs
Earl Scruggs Chords
Earl Scruggs Lyrics

Tablature from "Earl Scruggs and the 5-String Banjo" by Peer International Corporation.

Cripple Creek on the banjo: 

(G tuning, capo 2nd fret)

/ : slide up     h : hammer-on
 : slide down   p : pull-off

Note: Ok, I don't know if this is going to make much sense but this is half the song.
The other half is the exact same. You play this exactly as it is...repeating the 
second part once. Then you start completely over and do the whole thing over again,
including the repeat once more. Hope that clears it up a little :)


||-0------------0------------0------------0-----0-----------0-----------0------0---
||--------0------------0------------0-----------------0-----------0---------0------
||-0--2/3----------2/3----------2/3---------------2/3---------2p0------------------
||-------------------------------------------0-----------------------2----0h2------
||-0---------0------------0------------0--------0--------0------------------------0


|----2--||r--5--5---0-------------2-----0--0------------0------------0------0------
|-------||e-------------0------1------------------0------------0---------0---------
|-0-----||p-----------------------------------2/3----------2p0--------------------0
|-------||e-------------------------------------------------------2----0h2---------
|----0--||t-----0-----------0--------0-----0---------0-------------------------0---
    
    x1
|-2 r||
|-- e||
|-- p||
|-- e||
|-0 t||
Get this song at amazon.com      Ebay     Ringtones Ringtones  


Learn to play: Songwriting, Piano, Harmonica, Guitar
More Earl Scruggs lyrics available at Muzikum

Related Earl Scruggs Tabs

Foggy Mountain Breakdown tabs
Duelling Banjos tabs
My Tennessee Mountain Home tabs
Foggy Mountain Breakdown Guitar Arr tabs
You Are My Flower tabs
Foggy Mountain Breakdown banjo tabs
Dear Old Dixie banjo tabs
The Ballad Of Jed Clampett banjo tabs
Cripple Creek banjo tabs


Guitar Tabs









All tabs are property and copyright of their owners. All tabs provided for educational purposes only. Privacy Policy, DMCA

Online converter - videoconverter.com