E-Town Concrete

E-Town Concrete - 4 Tha Fame guitar tab

E-Town Concrete

4 tha Fame

DADGBE

tabbed by omnifreak102

Verse

E|-------------------------------------------------------------------

B|-------------------------------------------------------------------

G|----------------------------------------------------------0--------

D|----3-----3-----2-----2-------------3-----3-----2-----2-------2----

A|--5-----5-----3-----3-------------5-----5-----3-----3--------------

D|-------------------------------------------------------------------

-------------------------------------------------------------------|

-------------------------------------------------------------------|

----------------------------------------------------------0--------|

----3-----3-----2-----2-------------3-----3-----2-----2h3---3-2----|

--5-----5-----3-----3-------------5-----5-----3-----3--------------|

-------------------------------------------------------------------|

last one

-------------------------------------------------------------------|

-------------------------------------------------------------------|

----------------------------------------------5--------------------|

----3-----3-----2-----2-------------3-----3---5--------------------|

--5-----5-----3-----3-------------5-----5-----3--------------------|

-------------------------------------------------------------------|

(dist.)

Chorus

E|------------------------------|--------|

B|------------------------------|--------|

G|--7------5---55-557---2---5---|--------|

D|--7---00-5---55-557--02--05---|--7///--|

A|--5---00-3---33-335--00--03---|--7///--|

D|------00-------------0---0----|--7///--|

|PM| PM PM

Riff

E|-----------------------------------|

B|-----------------------------------|

G|-----------------------------------|

D|--0-0-5-6-0-0-5-6-0-0-5-6-0-0-5-6--|

A|--0-0-3-4-0-0-3-4-0-0-3-4-0-0-3-4--|

D|--0-0-----0-0-----0-0-----0-0------|

|PM-| |PM-| |PM-| |PM-|

Riff 2

E|-----------------------------------------|

B|-----------------------------------------|

G|----------3---------5---------5----------|

D|--0-0-0-0-3-0-0-0-0-5---0-5h6------------|

A|--0-0-0-0-1-0-0-0-0-3---0----------------|

D|--0-0-0-0---0-0-0-0-----0----------------|

|PM-----| |PM----| |

F the World part

E|-----------------|---------------------------------------|

B|-----------------|---------------------------------------|

G|-7-------6-------|------------------5---------5----------|

D|-7-------6---6---|--0-0-0-0-0-0-0-0-5---0-5h6------------|

A|-5-------4---6---|--0-0-0-0-0-0-0-0-3---0----------------|

D|-------------6---|--0-0-0-0-0-0-0-0-----0----------------|

|-PM-----------| |

End on (clean)

E|-----------------|

B|--3-------1------|

G|--2---2---0------|

D|--0---2---2------|

A|--0---0---3------|

D|--0---0---0------|

I�m in a band called Mindclamp. We�re from Jersey and I majorly tip my hat to Delux

from E-Town. Check out www.mp3.com/mindclamp.

Get this song at:  amazon.com sheetmusicplus.com

Share your thoughts

Comments