Down

Down - Lysergik Funeral Procession3 guitar tab

Artist: Down

Album: Down II - A bustle in your hedgerow

Song: Lysergik Funeral Procession

by Ant (spakman@aol.com)

I've just tabbed out what i can by ear. I'm not sure whether the power

chords should be power chords or just two string chords (missing out the highest note), bt i left em as power chords. I'm not 100% on the last bit either. But what the hey, as far as I know its the first full tab for any track on Down II, so don't shoot me if its a bit wrong :o) More tabs for tracks from Down II would be appreciated! I thought I'd set the ball rolling with this effort...enjoy!

Intro (after weird noise)

E---------------------------------------------------

B---------------------------------------------------

G---------------------------------------------------

D-----2p0-------------------------------------------

A--4------2-----------------------------------------

E------------4----4-4-4--4br--2---2br--0------------

                  |----

              Light palm mute

E---------------------------------------------------

B---------------------------------------------------

G---------------------------------------------------

D-----2---------------------------------------------

A--4------------------------------------------------

E--------4br------4-4-4--4br--2---2br--0------------

                  |----

              Light palm mute

Funky riff/verse

E---------------------------------------------------

B---------------------------------------------------

G---------------------------------------------------

D--------2-----------2\1-----------2-----4br-4br-2--

A-----------4-----------2/4-----------4-------------

E--0h3h5-------0h3h5---------0h3h5------------------

E---------------------------------------------------------

B---------------------------------------------------------

G--------------------------------------------4---4/6------

D--------2-----------2p1-----------2-----x-x-4-x-4/6------

A-----------4-----------2/4-----------4--x-x-2-x-2/4------

E--0h3h5-------0h3h5---------0h3h5-------x-x---x----------

Breakdown to vocals 'lysergik funeral procession...'

E---------------------------------------------------

B---------------------------------------------------

G---------------------------------------------------

D--6-6-6-6-6-6-5--5--5--4-4-4-4-4-4-2--2--2---------

A--6-6-6-6-6-6-5--5--5--4-4-4-4-4-4-2--2--2---------

E--4-4-4-4-4-4-3--3--3--2-2-2-2-2-2-0--0--0---------

               |------              |------

               PM                   PM

E---------------------------------------------------

B---------------------------------------------------

G---------------------------------------------------

D---------------------------------------------------

A---2--4--------------------------------------------

E--------3--2------2--0-----------------------------

After 2nd verse:

E---------------------------------------------------

B---------------------------------------------------

G--------------6------------------------------------

D----------x-x-6-x-x--7b-7--0-4-0-4-0-4-------------

A----------x-x-4-x-x--7b-7--0-4-0-4-0-4-------------

E--/-14-\--x-x---x-x--5b-5--0-2-0-2-0-2-------------

E---------------------------------------------------

B---------------------------------------------------

G---------------------------------------------------

D--7-7-7-7-7-7-7-7-7-7-7-7-9-9-9-9-9-9-9-9-9-9-9-9--

A--7-7-7-7-7-7-7-7-7-7-7-7-9-9-9-9-9-9-9-9-9-9-9-9--

E--5-5-5-5-5-5-5-5-5-5-5-5-7-7-7-7-7-7-7-7-7-7-7-7--

I'm not sure about this part but i think it goes:

E---------------------------------------------------

B---------------------------------------------------

G--6h8-8-8-8-8-8-8-8-8-8-8-8p6---6------------------

D------------------------------8---8p6-8-6---6------

A------------------------------------------9---9-7--

E---------------------------------------------------

though i can't play it fast enough yet ;o)

Get this song at:  amazon.com sheetmusicplus.com

Share your thoughts

0 Comments found