Down

Down - Lysergik Funeral Procession guitar tab

Artist:Down

Song: Lysergik Funeral Procession

Album: Down II: A bustle in your hedgerow

In drop-D tunning, but I play it in standered E

Verse

e|--------------------------------|---------------

b|--------------------------------|---------------

g|--------------------------------|---------------

d|-------3---------4p3--------3---|5b-5b----------

a|---------5-----------3--------5-|------5--------

e|--0h3h5-----0h3h5------0h3h5----|---------------

Play this again up until the last part with the bends and play this:

e|------------------------------------------------

b|------------------------------------------------

g|------------------------------------------------

d|------------------------------------------------

a|------5p3-3p2-----------------------------------

e|--0-0-------------------------------------------

Get this song at:  amazon.com sheetmusicplus.com

Share your thoughts

0 Comments found