Dire Straits

Dire Straits - When It Comes To You guitar tab

Song Title : When It Comes To You

Artist : Dire Straits

Album : On Every Street

Tabber : G�kay Ersoy gokay96@hotmail.com

www.straits-tabs.tk

Intro:-

0:00

-----------------------------------------------------------------

-----------------------------------------------------------------

----------------------------------------------------3------------

---5--5----5-5--5--5----5-5---3-5b-p3----3-5--5p3-5---5p3-5--3h5-

---5--5--5---5--5--5--5---5------------5--------------------5----

-3---------------------------------------------------------------

0:11

-----------------------------------------------------------------

------3-------------3-----------------------3--------------------

--5b7---b7-7b5--3h5---3-------------7p5-3h5----------------------

-------------------------5p3---5---------------------------------

-----------------------------5-----------------------------------

-----------------------------------------------------------------

0:17

---------3---3-3-------------------------------------------------

-6p3---3---6-3-3-------------------------------------------------

-----5-----------------------------------------------------------

------------------5p3-5-5-3-5-3-5--------------------------------

-----------------------------------------------------------------

-----------------------------------------------------------------

Solo:

1:49

-----------------------------------------------------------------

----------------3--------3---------------6---3-------------------

----------------3--5-3-5-------5b7-b7--5---5---------------------

--5--5----5----------------5---------------------3-5-------------

--5--5--5---5----------------------------------------------------

-----------------------------------------------------------------

2:01

-----------------------------------------------------------------

------------------------3-----3-3--------------------------------

----------3---3---3h5b----5-5-----5-3----------------------------

------3-5---5---5---------------------5--------------------------

--3h5------------------------------------------------------------

-----------------------------------------------------------------

2:05

-----------------------------------------------------------------

-------------------------------------6b8-6b8--b8r6-3-6b8---------

--2-0---2-0------------------------------------------------------

------3-----3-3/7--5h7--7r--/3-5-5-------------------------------

-----------------------------------------------------------------

-----------------------------------------------------------------

2:15

--3-6-3----------------------------------------------------------

--------6-3------3-------6---6-3--8b11r------3-------------------

-------------5b7---b7r5----5-------------5b7---b7r5p3---3--------

------------------------------------------------------5---5------

-----------------------------------------------------------------

-----------------------------------------------------------------

2:28

-----------------------------------------------------------------

-----------------------------------------------------------------

---3-3--3h5-3--5p3-----------------------------------------------

---5-5--------------5-3-5----------------------------------------

-5---------------------------------------------------------------

-----------------------------------------------------------------

Notes:-

h:hammer on

p:pull off

/:slide

b:bend

r:release bend

Sry its only the solos, but the verses are just repetitions of part of the intro

Get this song at:  amazon.com sheetmusicplus.com

Share your thoughts

0 Comments found