Dimmu Borgir

Dimmu Borgir - Raabj?rn Speiler Draugheimens Skodde (2) guitar tab

DIMMU BORGIR - Enthrone Darkness Triumphant

11. Raabjorn speiler draugheimens skodde 5:02 (Unlabeled track)

corrections : parisc97@erols.com

m = mute < > = natural harmonic

Intro : Piano Arranged for guitar (clean) (8x)

PART 1 PART 2

mm Guitar 6x

e |---------------------7-5-3-5--3-2-3-2~--| ----------------

B |*-------78-7-8-7-3---------------------*| ----------------

G |-------------------4--------------------| ----------------

D |--------------------------------------------| --9-------------

A |*------------------------------------------*| --7------9------

E |--------------------------------------------| --0------7------

Play PART 1 twice and don't play anything for part two like first time.

Guitar comes in, let the chords ring.

GUTIAR only Riff 2x guitar and keyboard 2x

e |---------------------------------|------------------------|

B |---------------------------------|------------------------|

G |---------------------------------|------------------------|

D |-4--4-7---------4--4-7-----7-----|-9--10-7--9-9-----------|

A |-2--2-5-5--5-5--2--2-5-5-5-5-4-4-|-7--8--5--7-7-8-7-5-7-7-|

E |--------3--3-3---------3-3---2-2-|------------------------|

RIFF A 4x

e |--------------------------=======ending1===============|

B |-------------------------------------------------------|

G |-------------------------------------------------------|

D |-------------------5-7-9------10-----9-----10-12-10(9)|

A |-------8-----7-----3-5-7--7-7----7-7---7-7-------------|

E |-5-5-5---5-5---5-5-------------------------------------|

RIFF B 4x

e |=ENDING 2=================|-------------------------|

B |--------------------------|-------------------------|

G |--------------------------|-------------------------|

D |-----10--9-10-9-10-12-10-|-------------------------|

A |-7-7----------------------|-3"----2"-----7"---5"----|

E |--------------------------|-------------------------|

keyboard riff 4x (arranged for guitar) GUITAR part* 1? 2?

e |---------------------------|-------------------------|--------------

B |---------------------------|-------------------------|--------------

G |-5-----4------9-7----7-5-4-|-------------------------|-------------e

D |---7-----5--------10-------|-5-5---4-4---9-9---7-7---|-5-----4-----t

A |-----7-----7---------------|-3-3---2-2---7-7---5-5---|-3-----2-----c

E |---------------------------|-----0-----0-----0-----0-|---0-0---0-0--

guitar part 1 or 2, I even have another one, I don't know which one

is right. It's the background guitar for the keyboard on that riff.

It has all the same chords, all of them. But I dono't know which is better.

RIFF A

RIFF B 4x

keyboard and sh*t (no singing) 4x

RIFF C RIFF D w/ keyboard and everything

e |----------------------|-------------------------------|

B |----------------------|-------------------------------|

G |----------------------|-------------------------------|

D |-2--2-5--2--5----4----|-2---2-5-------2---5---4-------|

A |-2--0-3--2--3-7--2-5--|-2---0-3-3-2-0-2---3-7-2-7-----|

E |-0-------0----5----3--|-0-------------0-----5---5-(0)-|

l l l l

RIFF E keyboard approx

e |--------------------------------------|

B |--------------------------------------|

G |--------------------------------------|

D |---5-9-5---5-9-5---5-9-5---9-5-9------|

A |-7-------7-------7-------7------...etc|

E |--------------------------------------|

harmonizer (harmonized keyboard? or am I making this up?)

e |------------------------------------|

B |------------------------------------|

G |------------------------------------|

D |---5-9-5---5-9-5-9-10-10-9-7-10-9-7-|

A |-7-------7--------------------------|

E |------------------------------------|

after this harmonized shit, play RIFF D

then w/ harmony

then RIFF C

then RIFF D

then RIFF C and fade out

Get this song at:  amazon.com sheetmusicplus.com

Share your thoughts

0 Comments found